Mudvayne - Silenced Chords & Tabs

 

Silenced Chords & Tabs

Mudvayne Chords & Tabs

Version: 3 Type: Tab 0 ratings
1 star 2 stars 3 stars 4 stars 5 stars
comments

Silenced Tab

   
Artist: Mudvayne
Song Title: Silenced 
Submitted by: mike downes 
Mudvayne tunes to Droped C on this CD
thats C-G-C-F-A-D

INTRO:
clean
|---------------------------|
|---------------------------|
|---------------------------|
|---------------------------|
|-----5-----------5---------|
|-0-7---7-0---0-7---7-0-0-0-|
[ Tab from: http://www.guitartabs.cc/tabs/m/mudvayne/silenced_tab_ver_3.html ]
CHORUS:
|---------------------------|---------|
|---------------------------|---------|
|---------------------------|---------|
|---------------------------|---------|
|-0-7-5-7-0---0-7-5-7-0-0-0-|-3-2-3-2-|
|-0-7---7-0---0-7---7-0-0-0-|-3-2-3-2-|

VERSE:
|---------|-------|---------|-------|
|---------|-------|---------|-------|
|---------|---0---|---------|-0-----|
|---------|-4---4-|---------|---5-4-|
|-3-2-3-2-|-------|-3-2-3-2-|-------|
|-3-2-3-2-|-------|-3-2-3-2-|-------|
P.M.. . .           . . . .

BRIDGE:
|--------------|
|--------------|
|--------------|
|--------------|
|-5P4-H7P4H5P4-|
|--------------|

Mu Dv Ay Ne KICKS ASS





Comments