Mudvayne - Severed Chords & Tabs

 

Severed Chords & Tabs

Mudvayne Chords & Tabs

Version: 1 Type: Tab 0 ratings
1 star 2 stars 3 stars 4 stars 5 stars
comments

Severed Tab

   
Song: "Severed"
Artist: Mudvayne
Album: L.D. 50
Transcribed By: Bryan Bramlett (bryanmb87@aol.com)

Tuning: Drop D, Down 1 1/2 Steps (B,F#,B,E,G#,C#)
~ - vibrato
 - harmonic

INTRO:
|----------------------------------------------|
|-----16---------------------------------------|
|---15--15-15-15-15-15-15-15-15-14-14-14-14-14-|
|-14--------0--0--0--0--0--0--0--0--0--0--0--0-|
|----------------------------------------------|
|----------------------------------------------|

INTRO 2:
|-------------------------------------------------------------------|
|----------------16-------------------------------16----------------|
|-------------15----15-14-14-14-14-------------15----15-14-14-14-14-|
|-13-12-13-14-----------0--0--0--0-13-12-13-14-----------0--0--0--0-|
|-13-12-13-------------------------13-12-13-------------------------|
|-13-12-13-------------------------13-12-13-------------------------|

|----------------------------------|
|----------------------------------|
|----------------------------------|
|-13-12-13-------------------1-0-1-|
|-13-12-13--0-0-0-0-0-0-0-0--1-0-1-|
|-13-12-13--0-0-0-0-0-0-0-0--1-0-1-|
PM          . . . . . . . .

VERSE: (palm mute)
|-----------------|
|-----------------|
|-----------------|
|-0-0-0--00-0-0-0-|
|-0-0-0--00-0-0-0-|
|-0-0-0--00-0-0-0-|

BRIDGE:
|----------------------------------------|
|----------------------------------------|
|---------------------5-5--5-5--5-5--5-5-|
|-1-1--1-1--1-1--1-1--3-3--3-3--3-3--3-3-|
|-1-1--1-1--1-1--1-1--3-3--3-3--3-3--3-3-|
|-1-1--1-1--1-1--1-1--3-3--3-3--3-3--3-3-|

FILL: (palm mute)
|-----------------|
|-----------------|
|-----------------|
|-0-0-0-0-0-0-0-0-|
|-0-0-0-0-0-0-0-0-|
|-0-0-0-0-0-0-0-0-|

CHORUS:
|-------------------------------------------------------|
|-------------------------------------------------------|
|-------------------------------------------------------|
|-------------------------------10-9-7------------13\12-|
|-8-8-8-8-10-8-8-8-8-8-8-10-8-8--8-7-5-8-8-8-10-8-11\10-|
|-8-8-8-8-10-8-8-8-8-8-8-10-8-8--------8-8-8-10-8-------|

|--------------------|
|--------------------|
|--------------------|
|---------10\9\7-----|
|-8-8-8-8--8\7\5-8-8-|
|-8-8-8-8--------8-8-|

VERSE 2:
|------------------|
|------------------|
|----14----14------|
|-15----15----14~~-|
|------------------|
|------------------|
[ Tab from: http://www.guitartabs.cc/tabs/m/mudvayne/severed_tab.html ]
FILL 2:
|-------|
|-------|
|-------|
|-X--|
|-X-----|
|-X-----|

FILL 3:
|-----|
|-----|
|-----|
|-----|
|-----|
|-1/8-|

INTERLUDE:
|----------------------------------------------------------------------|
|---------------------------------------------------6-6----------------|
|---4-5-4-7-----------------4-5---------------4-5-7------------------5-|
|-0-------------3-2-2-2-2-0---------0-2-2-2-0------------------5-|
|-0---------2/3-3-2-2-2-2-0-----2/3-0-2-2-2-0-----------00---00---00-3-|
|-0-------------3-2-2-2-2-0---------0-2-2-2-0-----------00---00---00---|
PM              . . . . .           . . . .             ..   ..   ..

FILL 4:
|---|
|---|
|---|
|-5-|
|-5-|
|-5-|

INTERLUDE 2: (guitar 1) (w/ effect)
|-----------------------------------|
|-----------------------------------|
|-6\5-5-5-5-5-5-5-6\5-5-5-5-5-10/12-|
|-X-X-X-X-X-X-X-X-X-X-X-X-X-X--X--X-|
|-4\3-3-3-3-3-3-3-4\3-3-3-3-3--8/10-|
|-----------------------------------|

INTERLUDE 2: (guitar 2)
|-----------------------------------------------------------------|
|-----------------------------------------------------------------|
|-----------------------------------------------------------------|
|-0-0-0-0-0--0-0-0-0-0--0-0-0-0-0-0-0-0-0-0--0-0-0-0-0--0-0-0-0-0-|
|-0-0-0-0-0--0-0-0-0-0--0-0-0-0-0-0-0-0-0-0--0-0-0-0-0--0-0-0-0-0-|
|-0-0-0-0-0--0-0-0-0-0--0-0-0-0-0-0-0-0-0-0--0-0-0-0-0--0-0-0-0-0-|

FILL 5:
|----|
|----|
|----|
|-10-|
|-10-|
|-10-|

INTERLUDE 3: (guitar 1) (w/ delay)
|--------------------------------------------|
|--------------------------------------------|
|--------------------------------------------|
|-----10---11-10--------------10--11-10------|
|---10--10------10-11p10\8--10--10-----10/11-|
|-11----------------------10-----------------|

INTERLUDE 3: (guitar 2)
|---------------|
|---------------|
|---------------|
|-11-11---10-10-|
|-11-11---10-10-|
|-11-11---10-10-|

INTERLUDE 3 FILL: (guitar 1) (w/ delay)
|---------------------------|
|---------------------------|
|---------------------------|
|-----10---11-13-11---------|
|---10--10----------11p10\8-|
|-11------------------------|

FILL 6: (palm mute w/ gradual release)
|-------------------------------------------------|
|-------------------------------------------------|
|-------------------------------------------------|
|-10-10-10-10-10-10-10-10-10-10-10-10-10-10-10-10-|
|-10-10-10-10-10-10-10-10-10-10-10-10-10-10-10-10-|
|-10-10-10-10-10-10-10-10-10-10-10-10-10-10-10-10-|

Comments