Mudvayne - Severed Chords & Tabs

 

Severed Chords & Tabs

Mudvayne Chords & Tabs

Version: 6 Type: Bass Tab 0 ratings
1 star 2 stars 3 stars 4 stars 5 stars
comments

Severed Bass Tab

   
Artist - Mudvayne
Title  - Severed
From   - L.ethal D.osage 50
Volt3r (Volt3r@mail.ru) ICQ = 228639154

My fav song

h - hammeron
p - pulloff
/ - slide upwards
\ - slidedownwards
* - staccato (muting after picking)
x(X) - Death note
R - rest
pm - Palm muted
S(s) - slapping 
P(p) - popping
v - bend and release
^ - bend
H - hold
~ - vibrato
NOTE LENGHT
w - 1
h - 1/2
q - 1/4
e - 1/8
s - 1/16
t - 1/32
?.- dotted note (+ half of its own)

4str Bass
Tuning - BF#BE
Tempo 142

Intro

|----------14-14/15-14-12--|----------|
|4------13-----------------|--11h12v--|
|4-5/12--------------------|----------|
|--------------------------|----------|
   e e  e  s  s  e. e  e         w
|----------14-14h15-14-12--|----------|
|-------13-----------------|----------|
|--5/12--------------------|--10h12v--|
|--------------------------|----------|
   e e  e  e  s  e. e  e         w
   p p p          p s s s s s s p s s s s s s
|--8-7-8-------|--8-------------8--------------|2x
|5-------REST--|4------------------------------|
|4-6-5-6-------|4-6-------------6--------------|
|--------------|----0-0-0-0-0-0---0-0-0-0-0-0--|
   q.e e          e s s s s s s e s s s s s s
|--8-7-8-------|-------------------|
|5-------REST--|6---------------r--|
|4-6-5-6-------|4------------------|
|--------------|--0-0-0-0h1-0-1----|
   q.e e          e e e e q.e e q.

Verse

A
   s s s           s s s s
|---------------|-------------------|
|4---------r----|------------2h3p2--|
|4--------------|----------2--------|
|--0-0-1-0---1--|--0-0-0-0----------|
   e e e e q.e     e e e e e e e e 
|---------------|-------------------|
|4---------r----|-------------------|
|4--------------|--------------0h5--|
|--0-0-1-0---1--|--1-x-0-0-0h3------|
   e e e e q.e     e e e e e e e e 
   s s s           s s s s
|---------------|-------------------|
|4---------r----|------------2h3p2--|
|4--------------|----------2--------|
|--0-0-1-0---1--|--0-0-0-0----------|
   e e e e q.e     e e e e e e e e
                  s s s
|---------------|--------|
|4---------r----|--------|
|4--------------|--------|
|--0-0-1-0---1--|-0-0-1--|
   e e e e q.e    e e h.

B
           s s     s   s
|---------------|-----------|3x
|4-------r------|--------r--|
|4--------------|-----------|
|--0h1-0---0-0--|--0h1-0----|
   e e q q.s s     e e q h+e
           s s           s s
|---------------|---------------|
|4-------r------|----------2h3--|
|4--------------|--------2------|
|--0h1-0---0-0--|--0h1-0--------|
   e e q q.s s     e e q e e q
                           s   s
|---------------|-------------------|
|4---------r----|-------------------|
|4--------------|--------------0h5--|
|--0-0-1-0---0--|--1-x-0-0-0h3------|
   e e e e q.e     e e e e e e e e

C
                                 *     *     *     *
     *     *     *     *       p p   p p   p p   p p
|---------------------------|--5-5---5-5---5-5---5-5----|
|6--------------------------|---------------------------|
|4-1-1-r-1-1-r-1-1-r-1-1-r--|--3-3-r-3-3-r-3-3-r-3-3-r--|
|---------------------------|---------------------------|
   e e e e e e e e e e e e     e e e e e e e e e e e e
|---------------|---------------|
|4-------r------|----------2h3--|
|4--------------|--------2------|
|--0h1-0---0-0--|--0h1-0--------|
   e e q q.s s     e e q e e q

D
   s s s s s s s s
|-------------------|-------------------|
|4------------------|-------------------|
|4------------------|--1-1-1-1-3-0-1-1--|
|--0-0-0-0-0-0-0-0--|-------------------|
   e e e e e e e e     e e e e e e e e
                                 S
|-------------------|------------14/12--|
|4------------------|-------------------|
|4-1-1-3------------|--1-1-1-1-3-12/10--|
|--------0-0-3-2-0--|-------------------|
   e e e e e e e e     e e e e q e  e
           S  S  S
|--x-x-x-x-14-10----|-------------------|
|4-x-x-x-x----------|--1-1-1-1-3-0-1-1--|
|4-x-x-x-x-12-8-----|-------------------|
|----------------5\-|-------------------|
   e e e e e  q  e     e e e e e e e e
                                 S
|-------------------|------------14/12--|
|4------------------|-------------------|
|4-1-1-3------------|--1-1-1-1-3-12/10--|
|--------0-0-3-2-0--|-------------------|
   e e e e e e e e     e e e e q e  e
           S
|--x-x-x-x-14/10/9------|-------------------|
|4-x-x-x-x--------------|-------------------|
|4-x-x-x-x-12/8-/7------|--1-1-1-1-3-0-1-1--|
|------------------0/5--|-------------------|
   e e e e e  e  e s s     e e e e e e e e
                                 S
|-------------------|------------14/12--|
|4------------------|-------------------|
|4-1-1-3------------|--1-1-1-1-3-12/10--|
|--------0-0-3-2-0--|-------------------|
   e e e e e e e e     e e e e q e  e 
           S  S  S
|--x-x-x-x-14-10-----|-------------------|
|4-x-x-x-x-----------|-------------------|
|4-x-x-x-x-12-8------|--1-1-1-1-3-0-1-1--|
|----------------5/--|-------------------|
   e e e e e  q  e      e e e e e e e e
                                 S
|-------------------|------------14/12--|
|4------------------|-------------------|
|4-1-1-3------------|--1-1-1-1-3-12/10--|
|--------0-0-3-2-0--|-------------------|
   e e e e e e e e     e e e e q e  e 
                           S
|--x-x-x-x-14/10/9------|-----|
|4-x-x-x-x--------------|-----|
|4-x-x-x-x-12/8-/7------|-----|
|------------------0/5--|--1--|
   e e e e e  e  e s s     w

e

|-------------|---------------|3x
|4------------|----------2h3--|
|4-------r----|--------2------|
|--0h1-0---0--|--0h1-0--------|
   e e q q.e     e e q e e q

Verse 2

A (Kinda slapping solo. not 100% correct.)
   s s p s s s s s s p p     s p p s s s p p p p p
|-------------------------|----5---------------x-9--|3x
|4-----0---------------2--|----------------2-2------|
|4-------------------0----|------x-------0----------|
|--0-x---x-0-0-0-0-2------|--x-----x-0-2------------|
   e e e e s s s s s s e     e e e s s s s e s s e
B
   s s s   s s     s s s
|---------------|-----------|2x
|4--------------|-----------|
|4-------r------|--------r--|
|--0-0-0---0-0--|--0-0-0----|
   e e e h s s     e e e h+e
   s s s   s     s s s
|-------------|-----------|3x
|4------------|-----------|
|4-------r----|--------r--|
|--0-0-0---0--|--0-0-0----|
   e e e h e     e e e h+e
             s
|-----------------|
|6----------------|
|4-------r--------|
|--0-0-0---0-1/8--|
   e e e h e q q 
C
     *     *     *     *       *     *     *     *
|-------------------------|--5-5---5-5---5-5---5-5--|
|6------------------------|--x-x---x-x---x-x---x-x--|
|4-1-1-r-1-1-r-1-1-r-1-1--|--3-3-r-3-3-r-3-3-r-3-3--|
|-------------------------|-------------------------|
   e e e e e e e e e e e     e e e e e e e e e e e
D
                   s 
|-----------|------5/7--|
|4----------|-----------|
|4---12-10--|--8-7-3/5--|
|--0--------|-----------|
   q q. q.     q.q.e e
           s
|-------------------|--5/7----------|
|6------------------|3--------------|
|4-----------12-10--|4-3/5----------|
|--0-3-2-0-0--------|------0-3-2-0--|
   e e e e q q. q.     e e e e e e
|-----------|---------|
|4----------|---------|
|4---12-10--|--8-7-5--|
|--0--------|---------|
   q q. q.     q.q.q
     *   *   *
   s s s s s s     S
|---------------|--5--|
|4--------------|--5--|
|4--------------|--3--|
|--0-0-0-0-0-0--|-----|
   e q e q e e     w
e
[ Tab from: http://www.guitartabs.cc/tabs/m/mudvayne/severed_btab_ver_6.html ]
|-------14----12--|----10---9-5/7----------|
|4----------------|6-----------------------|
|4---12----10-----|4-8----7---3/5----------|
|--0--------------|---------------0-3-2-0--|
   q q  e  q  e      q e  q e e e e e e e
|-------14----12--|--5/7----------|
|4----------------|3--------------|
|4---12----10-----|4-3/5----------|
|--0--------------|------0-3-2-0--|
   q q  e  q  e      e e e e e e
|-------14----12--|----10---9---7--|
|4----------------|7---------------|
|4---12----10-----|8-8----7---5----|
|--0--------------|----------------|
   q q  e  q  e      q e  q e q e
     *   *   
   s s s s s s     S
|---------------|--5--|
|4--------------|--5--|
|4--------------|--3--|
|--0-0-0-0-0-0--|-----|
   e q e q e e     w

F

|-----------------|----------5-5-5--|______
|4----------------|-----------------|      |
|4----------------|----------3-3-3--|      |
|--0-0-0-0-0-0-0--|--0-0-0-0--------|      |
   e e e e q e e     e e q e e e e         |
|-----------------|----------10-10-10--|   |
|4----------------|--------------------|   |
|4----------------|----------8--8--8---|   |
|--0-0-0-0-0-0-0--|--0-0-0-0-----------|   |
   e e e e q e e     e e q e e  e  e        2x
|-----------------|----------9-9-9--|      |
|4----------------|-----------------|      |
|4----------------|----------7-7-7--|      |
|--0-0-0-0-0-0-0--|--0-0-0-0--------|      |
   e e e e q e e     e e q e e e e         |
|-----------------|----------10-10-10--|   |
|4----------------|--------------------|   |
|4----------------|----------8--8--8---|   |
|--0-0-0-0-0-0-0--|--0-0-0-0-----------|___|
   e e e e q e e     e e q e e  e  e
|-----------------|------------5/9--|
|4----------------|-----------------|
|4----------------|------------3/7--|
|--0-0-0-0-0-0-0--|--0-0-0-0-0------|
   e e e e q e e     e e q e e e e 
|-----------------|------------9\6--|
|4----------------|-----------------|
|4----------------|------------7\4--|
|--0-0-0-0-0-0-0--|--0-0-0-0-0------|
   e e e e q e e     e e q e e e e
|-----------------|------------5/9--|
|4----------------|-----------------|
|4----------------|------------3/7--|
|--0-0-0-0-0-0-0--|--0-0-0-0-0------|
   e e e e q e e     e e q e e e e 
|-----------------|----------------|
|4----------------|----------------|
|4----------------|----------------|
|--0-0-0-0-0-0-0--|--0-0-0-0-0-12\-|
   e e e e q e e     e e q e e q 

G
     *     *     *     *       *     *     *     *
|-------------------------|--5-5---5-5---5-5---5-5--|
|6------------------------|--x-x---x-x---x-x---x-x--|
|4-1-1-r-1-1-r-1-1-r-1-1--|--3-3-r-3-3-r-3-3-r-3-3--|
|-------------------------|-------------------------|
   e e e e e e e e e e e     e e e e e e e e e e e
|---------------|-----------------|
|4--------------|-----------------|
|4-------x------|----------0h1p0--|
|--0-0-0-x-0-0--|--0-0-0-0--------|
   e e q q e e     e e e q e e e 
|---------------|-----------------|
|4--------------|-----------------|
|4-------x-x----|------------0h5--|
|--0-0-0-x-x-0--|--0-0-0-0h3------|
   e e q e q e     e e e e e e e 
|---------------|-----------------|
|4--------------|-----------------|
|4-------x------|----------0h1p0--|
|--0-0-0-x-0-0--|--0-0-0-0--------|
   e e q q e e     e e e q e e e 
|---------------------|
|6--------------------|
|4-------r------------|
|--0-0-0---0-0-0-0-0--|
   e e e h s s e e q

SOLO

|--5--|
|6-3--|
|4-3--|
|-----|
   w.
|-----------17------18--|-----17----------14h15p14--|
|4----16-------16-x-----|--16----16-17--------------|
|4-16----16-------------|--------------16-----------|
|-----------------------|---------------------------|__
   e  q  e  e  e  e e      e  e  e  e  e  e  e  e      |
|-----------17------18--|-----17--------------|         6x
|4-14-15-------15-x-----|--15----15-17h18\14--|________|
|4-------15-------------|---------------------|
|-----------------------|---------------------|
   q  e  e  e  e  e e      e  e  e  e  e  q.
   s  s
|--14-14------17------18--|-----17----------14h15p14--|
|4-12-12---------16-x-----|--16----16-17--------------|
|4-------r-16-------------|--------------16-----------|
|-------------------------|---------------------------|__
   e  e  e e  e  e  e e      e  e  e  e  e  e  e  e      |
   s  s                                                   2x
|--13-13------17------18--|-----------17------18--|______|
|4-11-11---------15-x-----|--14-15-------15-x-----|
|4-------r-15-------------|--------15-------------|
|-------------------------|-----------------------|
   e  e  e e  e  e  e e      q  e  e  e  e  e e
   s  s
|--14-14------17------18--|-----17----------14h15p14--|
|4-12-12---------16-x-----|--16----16-17--------------|
|4-------r-16-------------|--------------16-----------|
|-------------------------|---------------------------|
   e  e  e e  e  e  e e      e  e  e  e  e  e  e  e
   s  s 
|--13-13------17------18--|-----------17------18--|
|4-11-11---------15-x-----|--14-15-------15-x-----|
|4-------r-16-------------|--------15-------------|
|-------------------------|-----------------------|
   e  e  e e  e  e  e e      q  e  e  e  e  e e
   s  s
|--14-14------17------18--|-----17----------14h15p14--|
|4-12-12---------16-x-----|--16----16-17--------------|
|4-------r-16-------------|--------------16-----------|
|-------------------------|---------------------------|
   e  e  e e  e  e  e e      e  e  e  e  e  e  e  e
   s s
|--13-13------17------18--|-----20----18----17-15--|
|4-11-11---------16-x-----|--------16----16--------|
|4-------r-16-------------|--21--------------------|
|-------------------------|------------------------|
   e  e  e e  e  e  e e      e  e  e  e  e  e  q
|--12-12-12-12-12-12-12-12--|--12-12-12-12-12-12-----|
|4-10-10-10-10-10-10-10-10--|--10-10-10-10-10-10-----|
|4--------------------------|------------------------|
|---------------------------|--------------------12/-|
   e  e  e  e  e  e  e  e      e  e  e  e  e  e  q

Ending 

Last one (thanx God)

|-------------------|-------------------|
|4------------------|-------------------|
|4-1-1-1-1-3-0-1-1--|--1-1-3------------|
|-------------------|--------0-0-3-2-0--|      
   e e e e e e e e     e e e e e e e e         
|------------14/12--|--x-x-x-x-14/10/9------|
|4------------------|--x-x-x-x--------------|
|4-1-1-1-1-3-12/10--|--x-x-x-x-12/8-/7------|
|-------------------|------------------0h5--| tl end

Lyrics

And we hide behind,
Lies, anger, Hate they shoo love away,
Build shells of ourselves outside,
It shelters body from cold reigns of reality,

Come on, Step out, of your rind, assemble strength, focus,

Release and run to me you can never look back to the visions from the
past they fade and wilt in time,
You've got to just trust me to hold your hand through,
Then I turn and walk away,

Eclipse you,
And bleed you strip you of your states of ain soph aur,
Eclipse you,
I spit up on my plate and I push everything away,
I need,
And we sever all ties,
It creates disruption midst circle of friends,
I become the sacrifice,
Spare your life and leave me to my misery,

Get off the cross, and save yourself, run away and be O.K.

Run now get away from me if I can get my grip I'll pull you down into
the hell I call my head you'll never get away
I sit down in my ugly place and build walls out of fragments from my
past of all the people that I needed and loved that walked away,

You've got to just trust me to hold your hand through then I'll turn
and walk away

I walk under the clouds of gray,
Sphere of storms in my head,

I'm trapped again in endless rain
I divorce the thoughts of you I love with me,
I divorce your innocence and my guilt,
I divorce the lying sellout confidence,
I'm divorcing every mother fuckin' thing
I divorce the love bled meaningless,
I divorce the makeshift harmony,
I divorce the taunting acts of violence,
I divorce the pastime of jealousy,
I divorce control,
I divorce the faith,
I divorce the virtue,
I divorce the rain,
I divorce the excuse,
I divorce the greed,
I divorce the need,
I divorce iniquity in this mother fuckin' bullshit life,
Just want it all to go away,
Just want to run away to die, take it, myself, my life
Text book fucking mental, off me and pitch me in a hole

I'll always be your shadow,
And veil your eyes from states of ain soph aur,
I can't be the hero anymore,
I spit up on my plate and then I turn and walk away,
I spit up on my plate and I disrupt the family,
I spit up on my plate and I sever the entity,
And I feel your warm sun on my face
Separate .

Eclipse you and bleed you strip you of your states of ain soph
aur,
I need you,
It's always been this way, I push it all away,
From me
Comments