Mudvayne - Severed Chords & Tabs

 

Severed Chords & Tabs

Mudvayne Chords & Tabs

Version: 4 Type: Bass Tab 0 ratings
1 star 2 stars 3 stars 4 stars 5 stars
comments

Severed Bass Tab

   
Song: Severed
Band: Mudvayne


Tuning:
E
B       s=slap   p=pluck    ^=bend   v=release
F#
B

  Intro                                this might look off, but you know how it goes
[-------14-14/15---14-------12---I--------------------------------] (the bend part)
[----13--------------------------I13-12^--v~~~~~~~~\--------------]
[/12-----------------------------I--------------------------------]
[--------------------------------I--------------------------------]

[-------14-14/15---14-------12---I--------------------------------]
[----13--------------------------I--------------------------------]
[/12-----------------------------I13--12^---v~~~~~~~~~~\----------]
[--------------------------------I--------------------------------]
                                                   
[8----------7---8----------------I8---------------7---------------]
[--------------------------------I--------------------------------]
[6----------5---6----------------I6---------------5---------------]
[--------------------------------I----0---0---0-------0---0---0---]
  strum                           p   s   s   s   p   s   s   s 
[8----------7---8----------------I8---------------7---------------]
[8----------7---8----------------I--------------------------------]
[6----------5---6----------------I6---------------5---------------]
[--------------------------------I----0---0---0-------0---0---0---]
                                  p   s   s   s   p   s   s   s 
 gradually play louder
[--------------------------------I--------------------------------]
[--------------------------------I--------------------------------]
[--------------------------------I--------------------------------]
[0---0---0---0---0---0---0---0---I1-----------0---1---------------]

 Verse                     v-play these the 1st time only, then play the ones in ()
[--------------------------------I--------------------------------]                
[--------------------------7h8p7-I--------------------------------]                 
[-------------------------(0h1p0)I----------------------------0h5-]                
[0-0-1-0---1-0-0-0-0-1---X-------I0-0-1-0-1-2-X-0-0-0-0---0h3-----]               
 And we hide behind....           Lies, anger, hate, they shoo love away...
[--------------------------------I--------------------------------]                
[--------------------------------I--------------------------------]                 
[--------------------------0h1p0-I--------------------------------]                
[0-0-1-0---1-0-0-0-0-1---X-------I0-0-1-0-1-2-X-0-0-0-0---1-------] let 1 ring    
 Build shells of ourselves outside....

[--------------------------------I--------------------------------]
[--------------------------------I--------------------------------]
[--------------------------------I--------------------------------]
[0-0-0-------00-0-0-0------------I0-0-0--------00-0-0-0-----------]    rpt
       come on..      step out!...     of your rind... assemble strength

[------------------------3-3---3-3---3-3---3-3--]
[-----------------------------------------------]
[1-1---1-1---1-1---1-1---1-1---1-1---1-1---1-1--]
[-----------------------------------------------]
 trust me to hold your hand through, and i turn and walk away...

  Chorus

[--------------------------------I------------------------------]
[--------------------------------I------------------------------]
[1---1---1---1---3---0---1---1---1---1---3----------------------]
[--------------------------------I-----------0---0---3---2---0--]
 eclipse..                                                                          
[------------------------14\12---X---X---X---X---12\10--\---------]                  
[--------------------------------X---X---X---X--------------------]        
[1---1---1---1---3-------12\10---X---X---X---X---10\8---\---------]         
[--------------------------------I--------------------------------]        
 you and...     
  (last one)
[--------------------------------I------------------------------]
[--------------------------------I------------------------------]
[1---1---1---1---3---0---1---1---1---1---3----------------------]
[--------------------------------I-----------0---0---3---2---0--]
 spit upon my plate....           
[------------------------14\12---X---X---X---X---12\10\9\---------]                  
[--------------------------------X---X---X---X--------------------]        
[1---1---1---1---3-------12\10---X---X---X---X---10\8-\7\---------]         
[--------------------------------I---------------------------/5~~-]        
 push everything away                                      from me...

 verse 2
[ Tab from: http://www.guitartabs.cc/tabs/m/mudvayne/severed_btab_ver_4.html ]
[--------------------------------I----5------------------------9--]
[----0---------------------------I--------------------------/7----]
[---------------------------7----I------X------------7------------]
[0-X-----X----0-0-0-0----/7------X--------X----0--/7--------------]
 s s p   s                       s    p s s      
 And we sever all ties..          it creates disruption midst circle of friends
[--------------------------------I---5p0--------------------9\----]
[--------------------------------I--------------------------7\----]
[---------------------------7----I------------------7-------------]
[X-0-0---X----0-0-0-0----/7------X-X-----X-0---0-/7------X--------]
                                 s s p   s s             s  p
 I become sacrifice.....           

then theres a ton of these
(im just gonna tab this once cuz youll know where they go)

[--------------------------------]
[--------------------------------]
[--------------------------------]
[0-0-0--------0-0-0-0------------]

Breakdown
[--------------------------------------------]
[--------------------------------------------]
[---12~~--10~~--8~~---7~~---3h5--------------]
[0-------------------------------0--3--2--0--]
                                             
[--------------------------------]
[--------------------------------]
[---12~~--10~~---3h5-------------]
[0--------------------0--3--2--0-]
 (last one before singing)
[--------------------------------I-----------------5--------------]
[--------------------------------I-----------------5--------------]
[---12~~--10~~--8~~---7~~---5~~--I-----------------3--------------]
[0-------------------------------I0-0---0-0---0-0-----------------]
                                  s s   s s   s s  strum
singing starts
[-----14----12---10----9----5/7--------------]
[--------------------------------------------]
[---12----10----8-----7-----3/5--------------]
[0-------------------------------0--3--2--0--]
 I walk under clouds of gray...
[-----14----12---5/7-------------]
[--------------------------------]
[---12----10-----3/5-------------]
[0--------------------0--3--2--0-]
 sphere of storms in my head..
[-----14----12---10----9-----7---I-----------------5--------------]
[--------------------------------I-----------------3--------------]
[---12----10----8-----7-----5----I-----------------3--------------]
[0-------------------------------I0-0---0-0---0-0-----------------]
 im trapped again in endless rain,s s   s s   s s  strum


 I divorce the....part
[--------------------------5-5-5-I--------------------------101010]
[--------------------------------I--------------------------------]
[--------------------------3-3-3-I---------------------------8-8-8]
[0-0-0-0-0----0-0-0-0-0----------I0-0-0-0-0-----0-0-0-0-0---------]
 I divorce the love bled meaningless, I divorce the makeshift harmony

[--------------------------9-9-9-I--------------------------101010]
[--------------------------------I--------------------------------]
[--------------------------7-7-7-I---------------------------8-8-8]   rpt both
[0-0-0-0-0----0-0-0-0-0----------I0-0-0-0-0-----0-0-0-0-0---------]
 I divorce the taunting acts of violence, i divorce the pastime of jealousy
 
 it changes to this
[-----------------------------5/9I------------------------------9\6
[--------------------------------I--------------------------------]
[-----------------------------3/7I------------------------------7\4
[0-0-0-0-0----0-0-0-0-0---0-0----I0-0-0-0-0-----0-0-0-0-0---0-0---]   rpt
 in this mutha fu*king bullsh*t life


Slow part
(this part youre going to hold down the E and B strings on either the 11 or 10 frets,
I'll note which ones, then tap the notes indicated with your right fingertips.)
(most of you already knows what he does here...just makin sure)

 (hold the 11's)                 hold the 10's
(11)--17---18-17-----------------(11)---17---18-17----------------]
(11)17-----------17p-18\17\15\14-(11)-17-----------17/18\14-------]
[--------------------------------I--------------------------------]
[--------------------------------I--------------------------------]
 (guitar comes in)
          hold 11's                      hold 10's
[13--13----17---18-17-------------12--12----17---18-17------------]
[11--11--------------17p-18\17\15-10--10----------------17/18\14--]
[--------------------------------I--------------------------------]
[--------------------------------I--------------------------------]
 I spit up on my plate,           and i disrupt the family

 Last one

         hold 11's                      (all 10's and 12's)
[13--13----17---18-20-18--17\----I12121212121212121212121212121212]
[11--11--------------------------I10101010101010101010101010101010]
[--------------------------------I--------------------------------]
[--------------------------------I--------------------------------]
 separate...separate...separate...separate!!
Comments