Mudvayne - Severed Chords & Tabs

 

Severed Chords & Tabs

Mudvayne Chords & Tabs

Version: 3 Type: Bass Tab 0 ratings
1 star 2 stars 3 stars 4 stars 5 stars
comments

Severed Bass Tab

   
Artist: MuDvAyNe
Song : Severed
Album : L.D.50
Email : PnutRyknow21587@aol.com

{}- hold this chord shape through the entire riff
x - slap or pop mute
h - hammer on
p - pulloff
t - tap with middle finger
b - bend
s - slap
P - pluck
\ - slide up
/ - slide down
* - strum with thumb and forefinger as if having a pick in ur hand.
Strum ur finger over the top frets        
    (around the 20th-24th frets depending on what kind of bass u have)
Tuning - B E A D G (its the way i play it)


   (00:06-00:14)
G:-----11-12-11-9----------------11-12-11-9----------
D:-\9-9-----------10-9-10-9--\9-9--------------------
A:-----------------------------------------10-9-10-9-
E----------------------------------------------------
B----------------------------------------------------

    (00:14-00:24)
G-5-4-5---------------5-4-5---------------5-4-5----------------------
D-5-4-5---------------5-4-5---------------5-4-5----------------------
A--------------------------------------------------------------------
E--------------------------------------------------------------------
B-------0-0-0-0-0-0-0-------0-0-0-0-0-0-0--------0-0-0-0-0-0-0-1-0-1-
  * * * s s s s s s s * * * s s s s s s s * * *
 
    (00:27-00:34)
G------------------------------------------------------------
D------------------------------------------------------------
A----------------------------------------------------------2-
E-------------------------2-3-2-------------------------2-3--
B-0-0-0-0-0-0-0-0-0-0-0-0-------0-0-0-0-0-0-0-0-0-0-0-0------
  s -------------------(all the way)----------------------->

   (00:35-00:40)
G----------------------------------------------------------
D----------------------------------------------------------
A----------------------------------------------------------
E-------------------------2-3-2----------------------------
B-0-0-0-0-0-0-0-0-0-0-0-0-------0-0-0-0-0-0-0-0-0-0-0-0-1b-
  s ----------------(all the way)----------------------->

   (00:41-00:50)
G----------------------------------------------------------------
D----------------------------------------------------------------
A----------------------------------------------------------------
E----------------------------------------------------------------
B-0-0-0---0-0-0-0-0-----0-0-0---0-0-0-0-0-----0-0-0---0-0-0-0-0--

   (00:51-00:57)
G----------------------------------------------------------
D----------------------------------------------------------
A----------------------------------------------------------
E-------------------------2-3-2----------------------------
B-0-0-0-0-0-0-0-0-0-0-0-0-------0-0-0-0-0-0-0-0-0-0-0-0-1b-
  s ----------------(all the way)----------------------->

    (01:00-01:05)
G--------------------12-12-12-12-12-12-12-12--
D---------------------------------------------
A--------------------10-10-10-10-10-10-10-10--
E---------------------------------------------
B-1-1--1-1--1-1--1-1--------------------------

G-------------------------------------------------------
D-------------------------------------------------------
A-------------------------------------------------------
E-------------------------2-3-2-------------------------
B-0-0-0-0-0-0-0-0-0-0-0-0-------0-0-0-0-0-0-0-0-0-0-0-0-
  s ----------------(all the way)---------------------->

G--------------------------------------------------11-9---------7-6--
D---------------------------------------------------x-x---------x-x--
A---------------------------------------------------9-7---------5-4--
E-----3-3-3-3-5---3-3-3-3-5-5---3-------3-3-3-3-5--------------------
B-/10-----------0-------------0---3-2-0-----------0------0-0-0-0-----

G--------------------------------------
D--------------------------------------
A----------------------------------2---
E------------------------------2-3-----
B -0-0\\\\\0h1-1-1-x-1-1p0-0-0---------
   s ----------------(all the way)------>

G--------------------------------------
D--------------------------------------
A--------------------------------------
E------------------------------2-3-2---
B -0-------0h1-1-1-x-1-1-p0-0-0--------
   s ----------------(all the way)------>

G--------------------------------------
D--------------------------------------
A----------------------------------2---
E------------------------------2-3-----
B -0-------0h1-1-1-x-1-1p0-0-0---------
   s ----------------(all the way)------>


G-----------------------6--4-------------
D--------------------\4-----------4---11-
A-------------------------------\2--\9---
E----------------------------------------
B-0-0-0-0-x-0-0-0-0-0---------x----------
  s s s s s s s s s s      P  s


G-----------------------6--4-----------/6-
D--------------------\4-----------4----/4-
A-------------------------------\2--------
E-----------------------------------------
B-0-0-0-0-x-0-0-0-0-0---------x-----0-----
  s s s s s s s s s s      P  s   
G---------------------
D---------------------
A---------------------   (repeat 6 times)
E---------------------
B-0-0-0-0-x-0-0-0-0-0-
  s s s s s s s s s s

G---------------------------12-12-12-12---
D-----------------------------------------
A---------------------------10-10-10-10---
E-----------------------------------------
B-1\\\\\\1-1--1-1--1-1--1-1---------------

G----------------------------------
D----------------------------------
A---\9---7---5---4---0h2-----------
E----------------------------------
B-0----0---0---0---0-----0-0-3-2-0-

G---------------------------
D---------------------------
A---\9----7--0h2------------
E---------------------------
B-0----0----0----0-0-3-2-0--


G-------------------------------------7--
D-------------------------------------8--
A---\9---7---5---4---0h2-----2-----2--8--
E-------------------------------------6--
B-0----0---0---0---0-----0-0---0-0-------
                         s s P s s P  *

G-----11--9---7---6-----4----------------
D----------------------------------
A---\9---7---5---4---0h2-----------
E----------------------------------
B-0----0---0---0---0-----0-0-3-2-0-


G-----11--9--------------------
D---------------------------
A---\9---7----0h2------------
E---------------------------
B-0----0----0-----0-0-3-2-0--


G-----11--9---7---6-----4--------------7--
D--------------------------------------8--
A---\9---7---5---4---0h2------2-----2--8--
E--------------------------------------6--
B-0----0---0---0---0------0-0---0-0-------
                          s s P s s p  *

G----
D----
A----
E----
B-0--
  s

G----------------------2-2-2-2----------------------4-4-4-4-
D----------------------2-2-2-2----------------------4-4-4-4-
A-----------------------------------------------------------
E-----------------------------------------------------------
B-0-0-0-0-0-0-0-0-0-0-0--------0-0-0-0-0-0-0-0-0-0-0--------
                       * * * *                      * * * *


G----------------------6-6-6-6----------------------7-7-7-7-
D----------------------6-6-6-6----------------------7-7-7-7-
A-----------------------------------------------------------
E-----------------------------------------------------------
B-0-0-0-0-0-0-0-0-0-0-0--------0-0-0-0-0-0-0-0-0-0-0--------
                       * * * *                      * * * *

[ Tab from: http://www.guitartabs.cc/tabs/m/mudvayne/severed_btab_ver_3.html ]
G------------------------4\6------------------------6\4-
D------------------------4\6------------------------6\4-
A-------------------------------------------------------
E-------------------------------------------------------
B-0-0-0-0-0-0-0-0-0-0-0-0----0-0-0-0-0-0-0-0-0-0-0-0----



G--------------------12-12-12-12-12-12-12-12--
D---------------------------------------------
A--------------------10-10-10-10-10-10-10-10--
E---------------------------------------------
B-1-1--1-1--1-1--1-1--------------------------


G--------------------------------------
D--------------------------------------
A----------------------------------2---
E------------------------------2-3-----
B -0-0\\\\\0h1-1-1-x-1-1p0-0-0---------
   s ----------------(all the way)------>

G--------------------------------------
D--------------------------------------
A--------------------------------------
E------------------------------2-3-2---
B -0-------0h1-1-1-x-1-1-p0-0-0--------
   s ----------------(all the way)------>

G--------------------------------------
D--------------------------------------
A----------------------------------2---
E------------------------------2-3-----
B -0-------0h1-1-1-x-1-1p0-0-0---------
   s ----------------(all the way)------>

G-------------------------6-
D-------------------------7-
A-------------------------7-
E-------------------------5-
B-0-0-0-0-0-0-0-0-0-0-0-0--
  s s s s s s s s s s s s *
 
THIS PART LOOKS HARD BUT IT ISNT....YOU JUST HAVE TO BE PATIENT!
G-{---6}--14-p6-15-p6-14-p6-------------------
D-{--7-}---------------------14-p7-14\-15/-11-
A-{-7--}--------------------------------------
E-{5---}--------------------------------------
B---------------------------------------------
           t     t     t      t    t       t

G-{---6}--14-p6-15-p6-14-p6-------------------
D-{--7-}---------------------14-p7-14\-15/-11-
A-{-7--}--------------------------------------
E-{5---}--------------------------------------
B---------------------------------------------
           t     t     t      t    t       t


G-{---7}--14-p7-15-p7-14-p7-------------------
D-{--8-}---------------------14-p8-14\-15/-11-
A-{-8--}--------------------------------------
E-{6---}--------------------------------------
B---------------------------------------------
           t     t     t      t    t       t

G-{---6}--14-p6-15-p6-14-p6-------------------
D-{--7-}---------------------14-p7-14\-15/-11-
A-{-7--}--------------------------------------
E-{5---}--------------------------------------
B---------------------------------------------
           t     t     t      t    t       t

  "ill always be your shadow..."

G-{---7}--14-p7-15-p7-14-p7-------------------
D-{--8-}---------------------14-p8-14\-15/-11-
A-{-8--}--------------------------------------
E-{6---}--------------------------------------
B---------------------------------------------
           t     t     t      t    t       t

G-{---6}--14-p6-15-p6-14-p6-------------------
D-{--7-}---------------------14-p7-14\-15/-11-
A-{-7--}--------------------------------------
E-{5---}--------------------------------------
B---------------------------------------------
           t     t     t      t    t       t

G-{---7}--14-p7-15-p7-14-p7-------------------
D-{--8-}---------------------14-p8-14\-15/-11-
A-{-8--}--------------------------------------
E-{6---}--------------------------------------
B---------------------------------------------
           t     t     t      t    t       t

G-{---6}--14-p6-15-p6-14-p6-------------------
D-{--7-}---------------------14-p7-14\-15/-11-
A-{-7--}--------------------------------------
E-{5---}--------------------------------------
B---------------------------------------------
           t     t     t      t    t       t


G-{---7}--14-p7-15-p7-14-p7-------------------
D-{--8-}---------------------14-p8-14\-15/-11-
A-{-8--}--------------------------------------
E-{6---}--------------------------------------
B---------------------------------------------
           t     t     t      t    t       t


G-{---6}--14-p6-15-p6-14-p6-------------------
D-{--7-}---------------------14-p7-14\-15/-11-
A-{-7--}--------------------------------------
E-{5---}--------------------------------------
B---------------------------------------------
           t     t     t      t    t       t



G-{---6}--14-p6-15-p6-14-p6-------------------
D-{--8-}---------------------14-p8-14\-15/-11-
A-{-8--}--------------------------------------
E-{6---}--------------------------------------
B---------------------------------------------
           t     t     t      t    t       t


G-{---6}--14-p6-15-p6-14-p6-------------------
D-{--7-}---------------------14-p7-14\-15/-11-
A-{-7--}--------------------------------------
E-{5---}--------------------------------------
B---------------------------------------------
           t     t     t      t    t       t


G-7-7---14-p7-15-p7-14-p7-------------------
D-8-8---------------------14-p8-14\-15/-11--
A-8-8---------------------------------------
E-6-6---------------------------------------
B-------------------------------------------
  * *   t      t     t    t      t       t


G-6-6----14-p6-15-p6-14-p6-------------------
D-7-7-----------------------14-p7-14\-15/-11-
A-7-7----------------------------------------
E-5-5----------------------------------------
B--------------------------------------------
  * *     t     t     t      t    t       t


G-7-7---14-p7-15-p7-14-p7-------------------
D-8-8---------------------14-p8-14\-15/-11--
A-8-8---------------------------------------
E-6-6---------------------------------------
B-------------------------------------------
  * *   t      t     t    t      t       t


G-6-6----14-p6-15-p6-14-p6-------------------
D-7-7-----------------------14-p7-14\-15/-11-
A-7-7----------------------------------------
E-5-5----------------------------------------
B--------------------------------------------
  *  *    t     t     t      t    t       t


G-7-7---14-p7-15-p7-14-p7-------------------
D-8-8---------------------14-p8-14\-15/-11--
A-8-8---------------------------------------
E-6-6---------------------------------------
B-------------------------------------------
  * *   t      t     t    t      t       t


G-6-6----14-p6-15-p6-14-p6-------------------
D-7-7-----------------------14-p7-14\-15/-11-
A-7-7----------------------------------------
E-5-5----------------------------------------
B--------------------------------------------
  *  *    t     t     t      t    t       t


G-7-7---14-p7-15-p7-17-p7-------------------
D-8-8---------------------14-p8-14\-15/-11--
A-8-8---------------------------------------
E-6-6---------------------------------------
B-------------------------------------------
  * *   t      t     t    t      t       t


G-6-6-6-6-6-6-6-6-6666666666-
D-7-7-7-7-7-7-7-7-7777777777-
A-7-7-7-7-7-7-7-7-5555555555-
E-5-5-5-5-5-5-5-5-5555555555-
B----------------------------
  * * * * * * * * ********** 

G--------------------------------------------------11-9---------7-6--
D---------------------------------------------------x-x---------x-x--
A---------------------------------------------------9-7---------5-4--
E-----3-3-3-3-5---3-3-3-3-5-5---3-------3-3-3-3-5--------------------
B-/10-----------0-------------0---3-2-0-----------0------0-0-0-0-----

DO THIS UNTIL IT FADES OUT!!
HAVE FUN
Comments