Mudvayne - Severed Chords & Tabs

 

Severed Chords & Tabs

Mudvayne Chords & Tabs

Version: 2 Type: Bass Tab 0 ratings
1 star 2 stars 3 stars 4 stars 5 stars
comments

Severed Bass Tab

   
Artist: MuDvAyNe
Song: Severed
CD: L.D.50
Tabbed by: Philip (donutpatrol69@hotmail.com)
KEY
h= hammer on
p= pulloff
b= bend
/= slide up
\= slide down
~= let ring
(= ghost note (don't let it ring out)
S= pop
T= slap
x= dead note

intro: (0:07)
G| -------------------------------------------------------------------
D| ----------14-16-17-16-14---------------------14-16-17-16-14--------
A| -10/14-14----------------15-14b-----10/14-14----------------15-----
E| ---------------------------------------------------------------14b-
B| -------------------------------------------------------------------

G| --4/5-4-5------5--4--------4/5-4-5------5--4-------4/5-4-5----
D| --5/6-5-6------4--3--------5/6-5-6------4--3-------5/6-4-5----
A| --------------------------------------------------------------
E| --------------------------------------------------------------
B| --------------------------------------------------------------
     S   S S      S  S        S   S S      S  S       S   S S

G| ------------------------------
D| ------------------------------
A| ------------------------------
E| ------------------------------
B| –R-E-S-T---0-0-0-0--0h1p0-0---
              S S S S

1st verse: 4x's (0:25)
G| -------------------------------------
D| -------------------------------------
A| --------------------------[--2--3--2] /__ Don't play the 4th time
E| --------------------------[2--------] \   let the B ring out instead
B| -1-0h1p0-0-0--0h1p0--0--0------------

Fill # 1: 3x's (0:38)
G| -----------------
D| -----------------
A| -----------------
E| -----------------
B| --0-0-0--0h1p0-0-
  Back to 1st Verse (2x's)

Fill # 2: (0:55)

G| -------------------3---3---3---3-
D| -------------------1---1---1---1-
A| -1---2-0-1-2-0-------------------
E| ---2-----------------------------
B| ---------------------------------
   Play the 1st verse again

Chorus: 4x's (1:05)

G| -----------------------------------------------
D| ----------------------------------10\9---------
A| -1-------1-----------1-1-1/3-3-3/------0-10\9--
E| ---3-0h1---3-0-3---0---------------------------
B| -----------------2-----------------------------
   Play the 1st verse yet again (3 times)

Verse 2: (1:43) This is really weird, but listen and you will get it

G| --------------------------4-------3h4-
D| --------------------------------------
A| ------------------/4--x-x---x/4\------
E| --------------------------------------
B| -0h1p0-0--0h1p0-0---------------------
                         T T S   T

G| --------------------------4-\-3------4\-
D| -------------------------------------3\-
A| ------------------/4--x-x------/4\------
E| ----------------------------------------
B| -0h1p0-0--0h1p0-0-----------------------
                         T T S     T
   Play the first fill 5 times, and then play this

   This is just a little variation of the first verse
G| ----------------------
D| ----------------------
A| -------------------2-3
E| -----------------2----
B| --0-0-0--0h1p0-0------
   Then play the second fill and go to the slow breakdown


Slow Breakdown (2:22) 
                               
G| -----11---9---7---6---2h4--------------11---9---5h7--------
D| --------------------------x-x-x-x--------------------------
A| -7/9----7---5---4----2----x-x-x-x--7/9----7----5-----------
E| ----------------------------------------------------x-x-x-x
B| ----------------------------------------------------x-x-x-x
			     	
                                            
G| -----11---9---7---6---4------------------4~------
D| ----------------------------------------(3-------  
A| -7/9----7---5---4----2---------------------------
E| -------------------------------------------------
B| ------------------------x-x-0-0-x-0-0-x----------
			   T T T T T T T T  S

G| ------11---9----7---6----4----------11---9--
D| --------------------------------------------
A| -7/9----7----5---4----2-------7/9-----7-----
E| --------------------------------------------
B| --------------------------------------------
[ Tab from: http://www.guitartabs.cc/tabs/m/mudvayne/severed_btab_ver_2.html ]
G| -----11---9---7---6---4------------------4~------
D| -----------------------------------------3~------
A| -7/9----7---5---4----2---------------------------
E| -------------------------------------------------
B| ------------------------x-x-0-0-x-0-0-x----------
			   T T T T T T T T  S

Guitar Fill: (2:49)

G| ----------
D| ----------
A| ---rest---
E| ----------
B| ----------

Heavy Breakdown: (3:02)

G| ---------------------2--2--2--2-- (STRUM THE CHORDS WITH FINGERNAILS)
D| ---------------------x--x--x--x--
A| ---------------------0--0--0--0--
E| ---------------------------------
B| -1-0-0h1p0-1-0-0h1p0-------------

G| ---------------------4--4--4--4--
D| ---------------------x--x--x--x--
A| ---------------------2--2--2--2--
E| ---------------------------------
B| -1-0-0h1p0-1-0-0h1p0-------------

G| ---------------------6--6--6--6--
D| ---------------------x--x--x--x--
A| ---------------------4--4--4--4--
E| ---------------------------------
B| -1-0-0h1p0-1-0-0h1p0-------------

G| ---------------------7--7--7--7--
D| ---------------------0--0--0--0--
A| ---------------------------------
E| ---------------------------------
B| -1-0-0h1p0-1-0-0h1p0-------------
   Go back and play these sections again


G| ---------------------6~\---------------------7~\--
D| ---------------------5~\---------------------6~\--
A| --------------------------------------------------
E| --------------------------------------------------
B| -1-0-0h1p0-1-0-0h1p0-----1-0-0h1p0-1-0-0h1p0------
   Play this twice and then go to the next part

G| -----------------7-7-7-7-7-7-7-7-- THERE ARE A FEW RESTS IN BETWEEN THE CHORDS
D| -----------------6-6-6-6-6-6-6-6-- AND I DUNNO IF THAT IS THE EXACT NUMBER OF 
A| ---------------------------------- TIMES THAT THEY ARE PLAYED. BUT YOU GET THE 
E| ---------------------------------- GENERAL IDEA
B| -0-1-0-1-0-1-0-1------------------
   Now play the first verse 3 times then play this variation

G| --------------------------2~-
D| --------------------------1~-
A| -----------------------------
E| -----------------------------
B| --0H1P0-0-0--0H1P0--0--0-----
          		     S


Soft Interlude/ Bass Solo: (4:05)
barre the 12th and 13th fret (switch off) Pick the first note
and then tap the others. And strum the chords with finger nails.

Line A 
G| ---------14p12----15p12-14------------- 
D| ------14-------14----------14/15\11---- 
A| ---12----------------------------------
E| ---------------------------------------
B| --------------------------------------- 
 
Line b 
G| ---------14p13----15p13----14p13------------- 
D| ------14-------14-------14-------14/15\11---- 
A| ---13----------------------------------------
E| ---------------------------------------------
B| ---------------------------------------------
 
Line C 
G| ---3-3----14p12----15p12----14p12----------
D| ---3-3-14-------14-------14-------14/15\11-
A| ---3-3-------------------------------------
E| ---3-3-------------------------------------
B| ---3-3-------------------------------------
 
Line D 
G| ---2-2----14p13----15p13----14p13----------
D| ---2-2-14-------14-------14-------14/15\11-
A| ---2-2-------------------------------------
E| ---2-2-------------------------------------
B| ---2-2-------------------------------------
 
Line E 
G| ---3-3----14p13----15-16----------
D| ---3-3-14-------14-------14/15\11-
A| ---3-3----------------------------
E| ---3-3----------------------------
B| ---3-3----------------------------
 
Line F (stop barring the 12th fret and then play this part)
G| ---2-2---------------------/6~\---
D| ---2-2---------------------/5~\---
A| ---2-2----------------------------
E| ---2-2-2-2-2-2-2-2-2-2-2-2--------
B| ---2-2-2-2-2-2-2-2-2-2-2-2-------- 
  ORDER: 

  A-A-b-A-b-A-b-A-b-A-b-A-C-D-C-D-C-D-E-F
  (the last time you play D, don't slide the notes. pick them all)
  Then play the chorus (5:11 - end)


The next Ryan Martinie.... pHiLiP
Comments