Mudvayne - Seed Chords & Tabs

 

Seed Chords & Tabs

Mudvayne Chords & Tabs

Version: 1 Type: Bass Tab 0 ratings
1 star 2 stars 3 stars 4 stars 5 stars
comments

Seed Bass Tab

   
-----------------------------------------------------------------------------
			       Seed - Mudvayne
-----------------------------------------------------------------------------

Tabbed By : David K
e-mail: Mudfandkbass@VerizonMail.com
Mudvaynes old bass player wasn't that talented!
Tuning:B,E,A,D,G                                                                     
If you see this \ it means bend string, then let relax so the string bends back to
normal. (example:---3\--)

G|--------------------------------------------------------------------------|
D|--------------------------------------------------------------------------|
A|--------------------------------------------------------------------------|
E|--------------------------------------------------------------------------|
B|-3-3-3-3-3-3-3-3-3-3-3-3-3-3-3-3-3-3-3-3-3-3-3-3-3-3-3-3-3-3-3-3-3-3-3-3-3|         
Do as many times needed (Until Chad says, " Mother  Please" When he says that
do the part below

G|--------------------------------------------------------------------------|
D|--------------------------------------------------------------------------|
A|--------------------------------------------------------------------------|
E|---1-3-1----1-3\-------1-3-1----1-3\--------------------------------------|
B|-3------3-3----------3------3-3-------------------------------------------|
          Repeat this thing once
          Then go back to:
G|--------------------------------------------------------------------------|
D|--------------------------------------------------------------------------|
A|--------------------------------------------------------------------------|
E|--------------------------------------------------------------------------|
B|-3-3-3-3-3-3-3-3-3-3-3-3-3-3-3-3------------------------------------------|         

Do as many times needed. Then do below when Greg changes guitar parts.

G|--------------------------------------------------------------------------|
D|--------------------------------------------------------------------------|
A|--------------------------------------------------------------------------|
E|--------------------------------------------------------------------------|
B|--3-4-5-6-3-4-5-6-3-4-5-6-3-4-5-6-----------------------------------------|

Do this until Greg changes again and Chad screams,"REMEMBER!" 
Then do what's below. 
G|--------------------------------------------------------------------------|
D|--------------------------------------------------------------------------|
A|--------------------------------------------------------------------------|
E|--------------------------------------------------------------------------|
B|-3-3-3-3-3-3-3-3-3-3-3-3-3-3-3-3-3-3-3-3-3-3-3-3-3-3-3-3-3-3--------------|
[ Tab from: http://www.guitartabs.cc/tabs/m/mudvayne/seed_btab.html ]
Do as many times need,and when you hear someone scream,"MOTHER PLEASE!"
Do the below:
G|--------------------------------------------------------------------------|
D|--------------------------------------------------------------------------|
A|--------------------------------------------------------------------------|
E|---1-3-1----1-3\-------1-3-1----1-3\--------------------------------------|
B|-3------3-3----------3------3-3-------------------------------------------|
          Repeat this thing once
          Then go back to whats below (yes, again!)
G|--------------------------------------------------------------------------|
D|--------------------------------------------------------------------------|
A|--------------------------------------------------------------------------|
E|--------------------------------------------------------------------------|
B|-3-3-3-3-3-3-3-3-3-3-3-3-3-3-3-3------------------------------------------|
Do as many times needed until Greg changes guitar AGAIN! Then do whats below.
            
G|--------------------------------------------------------------------------|
D|--------------------------------------------------------------------------|
A|--------------------------------------------------------------------------|
E|--------------------------------------------------------------------------|
B|-3-4-5-6-3-4-5-6-3-4-5-6--------------------------------------------------|
  Do this all the way to when Greg soundes like he's using a Whammy Bar.
  Then when Chad screams something like DIE! DIE! DIIEE! Do whats below.
G|--------------------------------------------------------------------------|
D|--------------------------------------------------------------------------|
A|--------------------------------------------------------------------------|
E|--------------------------------------------------------------------------|
B|-3-3-3-3-3-3-3-3-3-3-3-3-3-3-3-3------------------------------------------|
Do as many times needed. (until someone says Father Please)
When you hear Father Please do what's below.
G|--------------------------------------------------------------------------|
D|--------------------------------------------------------------------------|
A|--------------------------------------------------------------------------|
E|---1-3-1----1-3\-------1-3-1----1-3\--------------------------------------|
B|-3------3-3----------3------3-3-------------------------------------------
 Repeat this thing once. Then do whats below.
  
G|--------------------------------------------------------------------------|
D|--------------------------------------------------------------------------|
A|--------------------------------------------------------------------------|
E|--------------------------------------------------------------------------|
B|-3-4-5-6-3-4-5-6----------------------------------------------------------|
Then do this till the end of the song!
Comments