Mudvayne - Rain Sun Gone Chords & Tabs

 

Rain Sun Gone Chords & Tabs

Mudvayne Chords & Tabs

Version: 1 Type: Bass Tab

Rain Sun Gone Bass Tab

Mudvayne - Rain. Sun. Gone.

tuning (low to high) - C G C F

Rest for 10 seconds

Riff 1 x1
     ssssssssSs  ssssSs      ssssssssSs  sS     ssssssssSs  ssssSs     ssssssssS  sssssss
|-----------------------|------------------|-----------------------|----------------------|
|4----------------------|3-----------------|4----------------------|----------------------|
|4-3h5---5535--3h5535---|4-3h5---5535--3h5-|4-3h5---5535--3h5535---|-3h5---5535-3h5555333-|
|-----023-----0-------0-|-----023-----0----|-----023-----0-------0-|----023---------------|

Riff 2 x2
  ssssssssssssssss     ssssssssssssssss   ssssssssssssssss     ssssssssssssssss
|-------------------|-------------------|-------------------|-------------------|
|-------------------|-------------------|-------------------|-------------------|
|-------------------|-----222666440211--|-------------------|-----222666--------|
|-0223220223220222/-|-/666------------4-|-0223220223220222/-|-/666------6696555-|

Riff 1 x1

Riff 3A x1
   ssssssssssssssss    ssssssssssssssss    ssssssssssssssss   ssssssssssssssss
|--------------------|------------------|-------------------|------------------|
|-/888---888---88----|------------------|-----5557775-5-----|----555888555-----|
|-----777---777--77\-|------------------|-/666-------6-6666-|-777---------6666-|
|--------------------|-2225558885552222-|-------------------|------------------|

  sssssssssssssse    ssssssssssssssss    ssssssssssssssss   ssssssssssssssss
|------------------|------------------|-------------------|------------------|
|-888---888--------|------------------|-----5557775-5-----|----555888555-----|
|----777---777-7---|------------------|-/666-------6-6666-|-777---------6666-|
|-------------8-8\-|-2225558885552222-|-------------------|------------------|

Riff 4 x1
  ssssssssssst t q      ssssssssssssssss   ssssssssssssssss     ssssssssssssssss
|---------------------|------------------|-------------------|-------------------|
|---------------<12>--|------------------|-------------------|-------------------|
|---------------<12>--|----222666444211--|-------------------|-----222666--------|
|-022322022322p0<12>--|-666------------4-|-0223220223220222/-|-/666------6696555-|

Riff 5 x1
  ssssssssssssssss     ssssssssssssssss   ssssssssssssssss     ssssssssssssssss
|-------------------|-------------------|-------------------|-------------------|
|-------------------|-------------------|-------------------|-------------------|
|-------------------|-----222666444211--|-------------------|-----222666--------|
|-0223220223220222/-|-/666------------4-|-0223220223220222/-|-/666------6696555-|

Riff 3B x1
   ssssssssssssssss    ssssssssssssssss    ssssssssssssssss   ssssssssssssssss
|--------------------|------------------|-------------------|------------------|
|-/888---888---88----|------------------|-----5557775-5-----|----555888555-----|
|-----777---777--77\-|------------------|-/666-------6-6666-|-777---------6666-|
|--------------------|-2225558885552222-|-------------------|------------------|

  sssssssssssse e    ssssssssssss e e    ssssssssssssssss   sssssssssssssss
|------------------|------------X-X-X-|-------------------|-----------------|
|-888---888---8----|------------X-X-X-|-----5557775-5-----|----55588855-----|
|----777---777--7\-|------------X-X-X-|-/666-------6-6666-|-777--------6666-|
|------------------|-22255588855X-X-X-|-------------------|-----------------|

Riff 5 x1

Riff 6 x1
  ssssssssssssssss     ssse s e. sssssss   ssssssssssssssss     ssssssssssssssss
|-------------------|--------------------|-------------------|-------------------|
|-------------------|--------------------|-------------------|-------------------|
|-------------------|-----2-2/6--040211--|-------------------|-----222666--------|
|-0223220223220222/-|-/666-------------4-|-0223220223220222/-|-/666------6696555-|

rest for 2 beats

Riff 7 x1
  e sssssse ss  ssss   e ssssse t t ssssss   e sss sssssssssss
|--------------------|---------------------|-------------------|
|--------------------|---------------------|-------------------|
|---------2--22h3333-|----------2h3p2-2----|---------766-------|
|-2-X22222--2--------|-4-444424------4-424-|-2-222/79---997799-|
[ Tab from: http://www.guitartabs.cc/tabs/m/mudvayne/rain_sun_gone_btab.html ]
    s s s s s s s e   ssst t sss   e sssssse ss  ssss   e ssssse t t ssssss
|--------------------------------|--------------------|---------------------|
|--------------------------------|--------------------|---------------------|
|--------------------------------|---------2--22h3333-|----------2h3p2-2----|
|-9h1010101010101010-\4444h5p444-|-2-222222--2--------|-4-444424------4-424-|

  e sss sssssssssss     e  s s s s s  e  s ssssss    e sssssse ss  ssss
|-------------------|------------------------------|--------------------|
|-------------------|------------------------------|--------------------|
|---------766-------|------------------------------|---------2--22h3333-|
|-2-222/79---997799-|-9h10-10101010X9h10-10997755\-|-2-222222--2--------|

  e sss sse t t ssssss   e sss sssssssssss     e.  s  ss e   s  se  se.
|----------------------|-------------------|------------------------------|
|----------------------|-------------------|------------------------------|
|-----------2h3p2-2----|---------766-------|-------10p9--9-9h10p9---9-----|
|-4-442h444------4-424-|-2-222/79---997799-|-9h10------10--------10--10\--|

  e sssssse ss  ssss   e sss sse t t ssssss   e sss sssssssssss
|--------------------|----------------------|-------------------|
|--------------------|----------------------|-------------------|
|---------2--22h3333-|-----------2h3p2-2----|---------766-------|
|-2-222222--2--------|-4-442h444------4-424-|-2-222/79---997799-|

  e  e  s s s  e  s ssssss   ssssssssssssssss   e e sse q    ssss
|--------------------------|------------------|-------------------|
|-----------------10-9-7-5-|------------------|-------------------|
|--------------------------|---------22222223-|-----23-----2h32---|
|-10-10-101010/10---9-7-5--|-22222222---------|-4-4---4-4------24-|

  e sss sssssssssss   s t t  ss e t t  ss e   s  se.     ssssssssssssssss
|-------------------|----------------------------------|------------------|
|-------------------|----------------------------------|------------------|
|---------766-------|---9p10h9--9-9h10p9--9-9h10p9-----|---------22222223-|
|-2-222/79---997799-|-10------10--------10--------10\--|-22222222---------|

  e e ssq.    ssss   e sss sssssssssss   s s s s s s s s  Ssss  ssss
|------------------|-------------------|-----------------------------|
|------------------|-------------------|-----------------------------|
|-----23----2h32---|---------766-------|-----------------------------|
|-4-4---4-------24-|-2-222/79---997799-|-1010101010101010\-4444h5444-|

Riff 3C x1
   ssssssssssssssss    ssssssssssssssss    ssssssssssssssss   ssssssssssssssss
|--------------------|------------------|-------------------|------------------|
|-/888---888---88----|------------------|-----5557775-5-----|----555888555-----|
|-----777---777--77\-|------------------|-/666-------6-6666-|-777---------6666-|
|--------------------|-2225558885552222-|-------------------|------------------|

  sssssssssssssse    ssssssssssss e e    sssssse. sssssss   ssssssssssssssss
|------------------|------------X-X-X-|-------------------|------------------|
|-888---888--------|------------X-X-X-|-----5557--5-5-----|----555888555-----|
|----777---777-7---|------------X-X-X-|-/666-------6-6666-|-777---------6666-|
|-------------8-8\-|-22255588855X-X-X-|-------------------|------------------|

Riff 8 x1
  s  sssssssssssssss     ssssssssssssssss   s sssssssssssssss   sssssssst t ssssss
|---------------------|-------------------|-------------------|--------------------|
|---------------------|-------------------|-------------------|--------------------|
|---------------------|-----222666444211--|----------22223333-|---------2h3p2-2----|
|-12\223220223220222/-|-/666------------4-|-0h2222222---------|-44444444-----4-424-|

  sssss sssssssssss   s s s s s s s s s  sss  ssss
|-------------------|------------------------------|
|-------------------|------------------------------|
|---------766-------|------------------------------|
|-22222/79---997799-|-101010101010101010\4444h5444-|

Riff 9 x1
    ssssssssssssssss   sssssssst t ssssss   sssss sssssssssss
||-------------------|--------------------|-------------------|
||o------------------|--------------------|-------------------|
||o---------22223333-|---------2h3p2-2----|---------766-------|
||--22222222---------|-44444444-----4-424-|-22222/79---997799-|
 ________________________________ _______________________________
|1.                             ||2.                           ||
  s s s s s s s s s  sss  ssss  || s s s s s s s e   sss  ssss ||
|-------------------------------||-----------------------------||
|------------------------------o||-----------------------------||
|------------------------------o||-----------------------------||
|-101010101010101010\4444h5444--||-1010101010101010-\4444h5444-||