Mudvayne - Pushing Through Chords & Tabs

 

Pushing Through Chords & Tabs

Mudvayne Chords & Tabs

Version: 1 Type: Tab 0 ratings
1 star 2 stars 3 stars 4 stars 5 stars
comments

Pushing Through Tab

Band- Mudvayne
Song- Pushing Through

Drop C tuning
*= Palm mute

INTRO Do only once
|-------------------------------------------------------------------|
|-------------------------------------------------------------------|
|--------------------------------------------------------------5-5--|
|--------------------------------------------------------------x-x--|
|--------------------------------------------------------------3-3--|
|-5-0-2-0-3-2---5-3-0-2---2-0-5-0-2-0-3-2---5-3-0-2---2-2-2---------|
                                                      * * *       
CHORUS    
     INITIAL                                   PART 1                        PART 2 
|---------------------------------|-------------------------------|---------------------------|
|---------------------------------|-------------------------------|---------------------------|
|---------------------------------|---------------------------5-5-|-------5-5-------5-5-------|
|---------------------------------|---------------------------x-x-|-------x-x-------x-x-------|
|-5-0-2-0-3-2---5-3-0-2---2-0-5-0-|-2-0-3-2---5-3-0-2---2-2-2-3-3-|-------3-3-------3-3-------|
|-5-0-2-0-3-2---5-3-0-2---2-0-5-0-|-2-0-3-2---5-3-0-2---2-2-2-----|-2-2-2-----2-2-2-----2-2-2-|
                                                        * * *       * * *     * * *     * * *
                                                                   \\                         /
                                                                   | Do part2 of chorus twice|
                                                                   | Before verse..and bridge|


|-------------------------------------------------------------|
|-------------------------------------------------------------|
|-------------------------------------------------------------|
|-------------------------------------------------------------|  VERSE
|-------------------------------------------------------------|
|-2-2-2-2-2-2-2-2-2-2----6-6-6-6-6-6-6-6-6---6-6-6-6-5-5-5-5--|
[ Tab from: http://www.guitartabs.cc/tabs/m/mudvayne/pushing_through_tab.html ]
|---------------------|
|---------------------|
|---------------------|
|-2-2-2-2-2-2-2-2-2-2-|  FILL
|---------------------|
|---------------------|

BRIDGE Pt.1  Listen and u should know When to pause the initial in the song
             INITIAL                      PART 1
|-------------------------------|--------------------------------|
|-------------------------------|--------------------------------|
|-------------------------------|--------------------------------|
|-------------------------------|--------------------------------| 
|-------------------------------|-----------------------6-6-7-7--|            
|-4-5-4-5-7---4-5-4-5-4---4-5-4-|-4-5-4-5-4---4-5-4-5-4----------|            


|-------------------------------------|
|-------------------------------------|
|-------------------------------------|
|-------------------------------------| BRIDGE FILL   do once replacing part 1 of BRDIGE Pt.1
|--5-5-5---------7-7-7--4-4-4--5-5-5--|
|----------3-3-3----------------------|


                                  INITIAL                   PART 1       PART 2
|------------------------------------------------------|-----------|-------------|
|------------------------------------------------------|-----------|-------------|
|------------------------------------------------------|-----------|-------------|  BRIDGE PT.2 
|------------------------------------------------------|-----------|-------------| Alternate from
|--4-4-4-7-7-4-4-4-7-7-10-10-7-7-------10-10-------7-7-|--5-5------|--7-7/10-10--| part 1 and 2
|--------------------------------8-8-8-------5-5-5-----|------3-3--|-------------| after inital


|------------------------------------------------------------------|
|------------------------------------------------------------------|
|---------------------------------------------------------4-4-4-4--| BRIDGE PT.3
|-2-3-2-3-5---2-3-2-3-2---2-3-2---2-3-2-3-5---2-3-2-3-2---2-2-2-2--|
|-2-3-2-3-5---2-3-2-3-2---2-3-2---2-3-2-3-5---2-3-2-3-2---2-2-2-2--|
|-2-3-2-3-5---2-3-2-3-2---2-3-2---2-3-2-3-5---2-3-2-3-2---2-2-2-2--|



|---------------------|
|---------------------|
|-4-4-4-4-4-4-4-4-4-4-| FILL 2   Replace with normal fill right after bridge
|-2-2-2-2-2-2-2-2-2-2-|
|---------------------|
|---------------------|
Comments