Mudvayne - Pharmaecopia Chords & Tabs

 

Pharmaecopia Chords & Tabs

Mudvayne Chords & Tabs

Version: 3 Type: Tab 0 ratings
1 star 2 stars 3 stars 4 stars 5 stars
comments

Pharmaecopia Tab

   
Song: "Pharmaecopia"
Artist: Mudvayne
Album: L.D. 50
Transcribed By: thomas hassler

Tuning: Drop D, Down 1 1/2 Steps (B,F#,B,E,G#,C#)

^(n) = bend 1/2 step and release
*    = palm mute

INTRO:
|-0-0-------------------------0-0-----------------|
|-5-5^(5)---------------------5-5-----------------|
|-------------------------------------------------|
|-------------------------------------------------|
|-------------------------------------------------|
|---------0-0--0--0-6-0-0-0-0-----0-0--0--0-6-0-0-|

BRIDGE:
|-------------------------------------------|
|-------------------------------------------|
|-----------------7-------------------------|
|-----------------7-------------------3-----|
|-0-0-6-5-0--2-0--5--6-5-0---0--2-0---1---2-|
|-0-0-6-5-0--2-0-----6-5-0---0--2-0-------2-|

FILL:
|---0-0-0-0-0-0-0-0-0-0-----------------------------|
|---5-5-5-5-5-5-5-5-5-5-----------------------------|
|---------------------------------------------------|
|-0-------------------------------------------3---0-|
|-0-------------------------------------------1---4-|
|-0-------------------------0-0-0-2-2-2-3-0---------|

VERSE 1: 
|------------------------------------------------------------------------------|
|------------------------------------------------------------------------------|
|------------------------------------------------------------------------------|
|-------------------<7>--------------------0-----------------------------------|
|----------------------------2/3----2/3----4-----------------------------------|
|-0-0-0-0-x-0-0-6-6------0---2/3----2/3--------0-0-0-0-x-0-0-0-0----0-0-0-0----|

|-------------------------------------------------------------------------------|
|-------------------------------------------------------------------------------|
|-----------------9/10\9--------------------------------------------------------|
|-11-12-11------------------------------------------0--------------------<7>----|
|-----------------7/-8\7-------8------2/3----2/3----4---------------------------|
|---------------------------0--8------2/3----2/3-------0-0-0-0-x-0-0-6-6------0-|

|---------------------------------------------|
|---------------------------------------------|
|------------------------------10\9-9-9-7-7-7-|
|---------------0-----------------------------|
|-2/3----2/3----4---------------8\7-7-7-5-5-5-|
|-2/3----2/3-------0-0-0-0--------------------|

CHORUS:
|---------------------------|
|---------------------------|
|---------------------------|
|---------------------------|
|---------------------------|
|-3-2-0--0--3-2-0--0--3-2-0-|

VERSE 2: 
|------------------------------------------------------------------------------|
|------------------------------------------------------------------------------|
|------------------------------------------------------------------------------|
|-------------------<7>--------------------0-----------------------------------|
|----------------------------2/3----2/3----4-----------------------------------|
|-0-0-0-0-x-0-0-6-6------0---2/3----2/3--------0-0-0-0-x-0-0-0-0----0-0-0-0----|

|-----------------------------------------------------------------------------------
|-----------------------------------------------------------------------------------
|-----------------9/10\9------------------------------------------------------------
|-11-12-11-------------------------------------------------------------------<7>----
|-----------------7/-8\7------8----4\3-0-0---4\3-0-0---4\3--------------------------
|--------------------------0--8----4\3-0-0---4\3-0-0---4\3--0-0-0-0-x-0-0-6-6------0
[ Tab from: http://www.guitartabs.cc/tabs/m/mudvayne/pharmaecopia_tab_ver_3.html ]
|--------------------------------------------------------|
|--------------------------------------------------------|
|------------------------------10-10-10-10//12-12-12//14-|
|---------------0----------------------------------------|
|-2/3----2/3----4--------------/8--8--8--8//10-10-10//12-|
|-2/3----2/3--------0-0-0-0------------------------------|

FILL 2:
|---------------------------|
|---------------------------|
|---------------------------|
|---------------------------|
|---------------------------|
|-3-2-0--0--3-2-0--0--3-2-0-|

|------------------------------------------------------|
|------------------------------------------------------|
|------------------------------------------------------|
|------------------------------------------------------|
|-3\2-3-0--3\2--3\2-3-0--3\2-3-0--3\2--3\2-0---------0-|
|-3\2-3-0--3\2--3\2-3-0--3\2-3-0--3\2--3\2-0--2-3-5----|

Fill 3:
|------------------------------------------|
|------------------------------------------|
|------------------------------------------|
|-10--10----10----10-10-10-10----0---------|
|--8---8-----8-----8--8--8--8----0---------|
|--8---8-----8-----8--8--8--8----0---------|

INTERLUDE:
|---------------------------------------------------|
|---------------------------------------------------|
|----------------------------------7-8-7--7---7-----|
|-10--10----10----10-10-10-10------0-0----0---0-----|
|--8---8-----8-----8--8--8--8-----------------------|
|--8---8-----8-----8--8--8--8---------------------0-|

FILL 3:
|---------------------------|
|---------------------------|
|---------------------------|
|-3-------------------------|
|-1--2-----3-----2--0--2----|
|----2-----3-----2--0--2--0-|

INTERLUDE 2:
|-----------------------------------------------------------|
|-----------------------------------------------------------|
|-----------------------------------------------------------|
|-10--10----10----10-10-10-10----0--------------------------|
|--8---8-----8-----8--8--8--8----0--------------------------|
|--8---8-----8-----8--8--8--8----0--------0--1-0--0----0--0-|

INTERLUDE 3:
|------------------------------------------------------------------------------------------------|
|------------------------------------------------------------------------------------------------|
|-17\16--------15\14----------------15\14--------17\16--------15\14-----------------15\14--------|
|------------------------------------------------------------------------------------------------|
|-15\14--------13\12----------------13\12--------15\14--------13\12-----------------13\12--------|
|--------0--0---------0--0---0-0-0---------0--0-----------0--0-------0--0---0-0-0-----------0--0-|

INTERLUDE 3B:
|-------------------------------------------------|
|-------------------------------------------------|
|-16/17--------17/19-------19/20-------17/19------|
|-------------------------------------------------|
|-14/15--------15/17-------17/18-------15/17------|
|--------0--0--------0--0--------0--0--------0--0-|

FILL 4:
|----------------------------|
|----------------------------|
|----------------------------|
|----------------------------|
|----------------------------|
|-1p0-0-0-0p1-1p-0-0-0-0-0-0-|

FILL 5:
|---------------------------|
|---------------------------|
|---------------------------|
|---------------------------|
|---------------------------|
|-3-2-0--0--3-2-0--0--3-2-0-|

|------------------------------------------------------|
|------------------------------------------------------|
|------------------------------------------------------|
|------------------------------------------------------|
|-3\2-3-0--3\2--3\2-3-0--3\2-3-0--3\2--3\2-0---------0-|
|-3\2-3-0--3\2--3\2-3-0--3\2-3-0--3\2--3\2-0--2-3-5----|


INTERLUDE:
|--------------------------------------------------|
|--------------------------------------------------|
|--------------------------------------------------|
|-10--10----10----10-10-10-10----0-----------------|
|--8---8-----8-----8--8--8--8----0-----------------|
|--8---8-----8-----8--8--8--8----0-----------------|

there.....100% correct......done finnaly.... hope you like
Comments