Mudvayne - Pharmaecopia Chords & Tabs

 

Pharmaecopia Chords & Tabs

Mudvayne Chords & Tabs

Version: 1 Type: Tab 0 ratings
1 star 2 stars 3 stars 4 stars 5 stars
comments

Pharmaecopia Tab

   
Song: "Pharmaecopia"
Artist: Mudvayne
Album: L.D. 50
Transcribed By: Bryan Bramlett (bryanmb87@aol.com)

Tuning: Drop D, Down 1 1/2 Steps (B,F#,B,E,G#,C#)

^(n) - bend 1/2 step and release

INTRO:
|-------------------------------------------------|
|-5-5^(5)---------------------5-5-----------------|
|-------------------------------------------------|
|---------0-0--0--0-6-0-0-0-0-----0-0--0--0-6-0-0-|
|---------0-0--0--0-6-0-0-0-0-----0-0--0--0-6-0-0-|
|---------0-0--0--0-6-0-0-0-0-----0-0--0--0-6-0-0-|

BRIDGE:
|--------------------------------------|
|--------------------------------------|
|--------------------------------------|
|-0-0-6-5-0--2-0--7-6-0--2p0-2p0-0-6-5-|
|-0-0-6-5-0--2-0--5-6-0--2p0-2p0-0-6-5-|
|-0-0-6-5-0--2-0----6-0--2p0-2p0-0-6-5-|

FILL:
|-------------------------------------------|
|---5-5-5-5-5-5-5-5-5-5---------------------|
|-------------------------------------------|
|-0-------------------------------------3-0-|
|-0---------------------0-0-0-0-2-2-2-2-1---|
|-0---------------------0-0-0-0-2-2-2-2-----|

VERSE 1: 
|-------------------------------------------------------|
|----------------------------------------14-------------|
|-----------------------6-----------------X-------------|
|-----------------------X----------------11-9/10\9------|
|------------2/3-2/3-4-------------------7/8 \7-12-8-|
|-0010-0030---3-2/3-2/3---0010-0000-0000-----------12-8-|

|-----------------------------------------------------|
|-----------------------------------------------------|
|---------6-----------------------6-------------------|
|---------X-----------------------X-------------------|
|-2/3-2/3-4------------2/3-2/3-4-----8p7-7-7-7p5-5-|
|-2/3-2/3---0000-003---3--2/3-2/3---000---------------|

CHORUS:
|-------------------------|
|-------------------------|
|-------------------------|
|-3-2-0-0--3-2-0-0--3-2-0-|
|-3-2-0-0--3-2-0-0--3-2-0-|
|-3-2-0-0--3-2-0-0--3-2-0-|

VERSE 2: 
|-------------------------------------------------------|
|----------------------------------------14-------------|
|-----------------------6-----------------X-------------|
|-----------------------X----------------11-9/10\9------|
|------------2/3-2/3-4-------------------7/8 \7-12-8-|
|-0010-0030---3-2/3-2/3---0010-0000-0000-----------12-8-|
[ Tab from: http://www.guitartabs.cc/tabs/m/mudvayne/pharmaecopia_tab.html ]
|---------------------------------------------------------------|
|---------------------------------------------------------------|
|----------------------------------------6----------------------|
|----------------------------------------X----------------------|
|-2/3p0-2/3p0-2/3-------------2/3-2/3-4-----12p8-8-8-8h10-10-|
|-2/3p0-2/3p0-2/3--0000-003---3--2/3-2/3---000------------------|

FILL 2:
|-----------------------------------------------------------------|
|-----------------------------------------------------------------|
|-----------------------------------------------------------------|
|-3-2-3-0--3-2-3-2-3-0--3-2-3-0--3-2-3-2-0-2-3-5-10-10-10-10-10-0-|
|-3-2-3-0--3-2-3-2-3-0--3-2-3-0--3-2-3-2-0-2-3-5--8--8--8--8--8-0-|
|-3-2-3-0--3-2-3-2-3-0--3-2-3-0--3-2-3-2-0-2-3-5--8--8--8--8--8-0-|

INTERLUDE:
|-----------------------------|    |------------------|
|-----------------------------|play|------------------|
|-----------------------------| 3X |------------------|
|-10-10-10-10-10-0-7-8\77-7-7-|then|-10-10-10-10-10-0-|
|--8--8--8--8--8-0-5-6\55-5-5-|    |--8--8--8--8--8-0-|
|--8--8--8--8--8-0------------|    |--8--8--8--8--8-0-|

FILL 3:
|-------------|
|-------------|
|-------------|
|-8-0-3-0-235-|
|-8-0-3-0-235-|
|-8-0-3-0-235-|

INTERLUDE 2:
|---------------------------|
|---------------------------|
|---------------------------|
|-7-7-8-7-10-7-0--0-1p0-0-0-|
|-8-8-8-8--8-8-0--0-1p0-0-0-|
|-8-8-8-8--8-8-0--0-1p0-0-0-|

INTERLUDE 3:
|------------------|
|------------------|
|------------------|
|-10-9--8-7----8-7-|
|------------------|
|------------------|

INTERLUDE 3B:
|---------------------------|
|---------------------------|
|---------------------------|
|-9-10--10-12--12-13--10-12-|
|---------------------------|
|---------------------------|

FILL 4:
|-------------------------|
|-------------------------|
|-------------------------|
|---------3-------------3-|
|-1p0-0-0-1-0-0-1p0-0-0-1-|
|-1p0-0-0---0-0-1p0-0-0---|

INTERLUDE 4:
|------------------------------------------------------|
|------------------------------------------------------|
|------------------------------------------------------|
|-------------------------3--------------------------3-|
|-1-0-0-0-1-0-0-0-1-0-0-0-1--1-0-0-0-1-0-0-0-1-0-0-0-1-|
|-1-0-0-0-1-0-0-0-1-0-0-0----1-0-0-0-1-0-0-0-1-0-0-0---|

FILL 5:
|---------------------------------------------------|
|---------------------------------------------------|
|---------------------------------------------------|
|-3-2-3-0--3-2-3-2-3-0--3-2-3-0--3-2-3-2-0--2-3-5-7-|
|-3-2-3-0--3-2-3-2-3-0--3-2-3-0--3-2-3-2-0--2-3-5-7-|
|-3-2-3-0--3-2-3-2-3-0--3-2-3-0--3-2-3-2-0--2-3-5-7-|

INTERLUDE:
|----------------|
|----------------|
|----------------|
|-7-7-8-7-10-7-0-|
|-8-8-8-8--8-8-0-|
|-8-8-8-8--8-8-0-|
Comments