Mudvayne - Pharmaecopia Chords & Tabs

 

Pharmaecopia Chords & Tabs

Mudvayne Chords & Tabs

Version: 2 Type: Bass Tab 0 ratings
1 star 2 stars 3 stars 4 stars 5 stars
comments

Pharmaecopia Bass Tab

   
Song: Pharmaecopia
Band: Mudvayne


Tuning:
E
B      s=slap p=pluck
F#
B

this song has the weirdest timing so i wont do anything fancy

  Intro
[-----------------------------------------------------------------]
[-----------------------------------------------------------------]
[-----------------------------------------------------------------]
[0-0--0---0-6-0--0---0---0-----------------0-0--0---0-6-0--0------]
                                                   
[------------------------------------------------X-----]
[------------------------------------------------------]
[---------------------------------------X-----X-----X-X]
[0-0--0---0-6-0--0---0---0--------------X-----X-----X-X]
                                        s     s  p  s s
[------------------------------X----------------------------------]
[-----------------------------------------------------------------]
[---------------------X-----X-----X-X-----------------------------]
[0-0--0---0-6-0--0----X-----X-----X-X--0-0--0---0-6-0--0---0---0--]
                      s     s  p  s s
[---------X------------------------------X----------------]
[---------------------------------------------------------]
[X-----X-----X-X----------------------XX---X--X----X-X----]
[X-----X-----X-X--0-0--0---0-6-0--0---XX---X--X----X-X---x]
 s     s  p  s s                      ss p s  s    s s
[--------------------------------------X--------------------------]
[-----------------------------------------------------------------]
[-----------------------------X-----X-----X-X---------------------]
[0-0--0---0-6-0--0---0---0----X-----X-----X-X---0-0--0---0-6-0--0-] -15\-
                              s     s  p  s s
 Does your god part   (0:26)   
 (the first 2 zeros are only played the second time they do this part)
[-----------------------------------------------------]  if ya need help, try n
[-----------------------------------------------------]  follow the words :)
[------------------------5------------------2h3-------]
[(0)--(0)-6p5--0---1p0-0---6p5--0---1p0-2p0-----0--0--]  rpt
does your god,     come,   in   a   cap-,  -sule to se-
         -date,    you,   tear the  walls, down headless
         pri-,    -son,   can- ni -bals,   chew to con-
        -sume,     you,    bring the alien...
     
[------------------<12>-----------------------------------]
[---------------------------------------------------------]
[---------------------------------------------------------]
[0----0-----0-----0------0----0-----0-----0------0----0---]
                     harmonic  
that weird fill
[--------------------------------]
[--------------------------------]
[--------------------------------]
[3-5-5-3-2-3-2-0-2------------13\]
[ Tab from: http://www.guitartabs.cc/tabs/m/mudvayne/pharmaecopia_btab_ver_2.html ]
 verse
[--------------------------------I--------------------------------]
[------------------------2h3-3-3-I------------------------5p3-3-3-]
[--------------------------------I--------------------------------]
[0-3-2-2-0-1-1-0-0-3-2-2---------I0-3-2-2-0-1-1-0-0-3-2-2---------]
 halcium and morphine             5-methoxy-n n-dimethyltryptamine
[--------------------------------I--------------------------------]
[------------------------5p3-3-3-I----------------2h3--2---0------]
[--------------------------------I--------------------------------]
[0-3-2-2-0-1-1-0-0-3-2-2---------I0-3-2-2-0-1-1-0--------------2--] rpt these
         psilocibyn,  mescaline,  aspirin,     histamine
the last little fill changes to
[--------------------------]
[--3-2-2-0--0--0--0--------]
[--------------------------]
[--------------------------]
 give it all to me i want it..

Chorus (i think...?)
[-------------------------------I-------------------------------]
[-------------------------------I-------------------------------]
[-------------------------------I-------------------------------]
[3-2-0---0---3-2-0---0---3-2-0--I3-2-0---0---3-2-0---0---3-2-0--]
 these are   just     a few of     my  favorite   things

  Verse 2 fills (the verses are the same except the fills at the ends)
(fill 3)
[--------------9---------]
[---2^v--0---8------0----]
[------------------------]
[------------------------]
 ..amanita muscaria...boric oxide...
[(/14)-14-----------------------]
[---------15-15-14-14-17-14\12--]
[-------------------------------]
[-------------------------------]
 give it all to me i want it    

then another chorus thing, then

[-----------------------------------------------------------------]
[-----------------------------------------------------------------]
[-----------------------------------------------------------0-1-1-]
[3-2-3---0--3-2-3-2-3---0-----3-2-3---0---3-2-3-2-0---2-3-5-------]
                                                   
[-/14---14---14-14---------------]
[-/15---15---15-15---------------]
[-/13---13---13-13---------------]
[-------------------0------------]
 strum these
[14---14---15---14-14-17p-14-----------]
[15---15---15---15-15-15--15-----------]
[13---13---13---13-13-13--13-----------] rpt a bunch of times
[------------------------------0-------]
 you cant kill me....im already dead

[----------------------------14---14---15---14-14-17p-14----------]
[----------------------------15---15---15---15-15-15--15----------]
[-0--------------------------13---13---13---13-13-13--13----------]
[-----0---2-----0----2-3-5/--------------------------------0------]
 we  just beg for any way!!!                              to  be
[-------------/14------------14---14---15---14-14-17p-14----------]
[-----------------15--15-----15---15---15---15-15-15--15----------]
[----------------------------13---13---13---13-13-13--13----------]
[12\0---2---0----------------------------------------------0------]
 sedated                                            its all       
[--------------/14-----------14---14---15---14-14-17p-14----------]
[-------------------15-15----15---15---15---15-15-15--15----------]
[----------------------------13---13---13---13-13-13--13----------]
[0---------------------------------------------------------0------]
      about escaping                     numb to me...
[--------------/14-----------14---14---15---14-14-17p-14----------]
[-------------------15-15----15---15---15---15-15-15--15----------]
[----------------------------13---13---13---13-13-13--13----------]
[0---------------------------------------------------------0------]
                 nobody from this earth            (i doubt the lyrics are right,
                                                    i dont care)
Then do part of the intro again then it goes to my favorite part on the drums
i guess cuz its like a drum solo

  Bridge
[-----------------------------------------------]
[-----------------------------------------------]
[-----------3--6-----0-3-5---5---x--1--3--------]
[0----------------------------------------1--0--]
 i can, feel them, pushing, i can feel them pulling..

 heavy part               
[-------------------------------------------------------------------------]
[-------------------------------------------------------------------------]
[-------------------------------------------------------------------------]
[1-0-0-0-1-2-0-0-1-0-0-0-1-0-1-2-0-0---1-0-0-0-1-2-0-0-1-0-0-0-1-0-1-2-0-0]
Comments