Mudvayne - Pharmaecopia Chords & Tabs

 

Pharmaecopia Chords & Tabs

Mudvayne Chords & Tabs

Version: 1 Type: Bass Tab 0 ratings
1 star 2 stars 3 stars 4 stars 5 stars
comments

Pharmaecopia Bass Tab

Artist: Mudvayne
Song: Pharmaecopia
Tabbed by frosty
Tuning goes from lowest sounding strin to highest B, F#, B, E
Note: You may find this song difficult to play because it has really weird timing.

Play the intro through 4 times, when the drums come in half way
through the second time start slapping your string along with the drums
but you have to mute it. 

INTRO
|-----------------------------------------------|
|-----------------------------------------------|
|-----------------------------------------------|
|-0-0-0--0--0-6-0-0--0-0------0-0-0--0--0-6-0-0-|

Only do the slide from 15 the first time, and play the rest of the riff through 4 times
SECOND RIFF (DOES YOUR GOD COME IN A CAPSULE)
|-----|---------------------------------------|
|-----|---------------------------------------|
|-----|---------------------------------------|
|-/15-|-6-5-6--1-0--0-6-5-6--1-0-2-1-0-6-0--0-|

Play bothe lines of this through twice, except at the end of the first time 
play the first box (2h3p2) and the second time play the second box
VERSE RIFF (1)
|-------------------------------------------|
|-------------------------------------------|
|-------------------------------------------|
|-0-0--0-0--5-6-5-3-5-3-3-0-0--0-0--5-3-3-3-|

|--------------------------------|-----------|-------------|
|--------------------------------|-2h3p2-0---|-2h3-3p2-2p0-|
|--------------------------------|---------0-|-------------|
|-0-0--0-0-0-0--0-0-0-0--0-0-0-0-|-----------|-------------|

Play this four times 
HEAVY RIFF (THESE ARE JUST A FEW OF MY FAVORITE THINGS)
|-----------------------|
|-----------------------|
|-----------------------|
|-3-2-0-0-3-2-0-0-3-2-0-|

Play this riff once in between the heavy riff and the second verse
|------------------|
|------------------|
|------------------|
|-0-0-0-2-2-2-2-0-0|
[ Tab from: http://www.guitartabs.cc/tabs/m/mudvayne/pharmaecopia_btab.html ]
Do the same thing with the second verse as with the second
VERSE RIFF (2)
|-------------------------------------------|
|-------------------------------------------|
|-------------------------------------------|
|-0-0--0-0--5-6-5-3-5-3-3-0-0--0-0--5-3-2-2-|

|--------------------------------|-------------|-7/14-------------14-------|
|--------------------------------|-2h3p2-0---2-|------15-15-14-14----14-12-|
|--------------------------------|---------0---|---------------------------|
|-0-0--0-0-0-0--0-0-0-0--0-0-0-0-|-------------|---------------------------|

After the second verse go back into the second riff (DOES YOUR GOD COME IN A CAPSULE)
then back into the heavy riff

Play this once before going into the chorus
|----------------------|
|----------------------|
|----------------------|
|-3-2-3-2--3-2-3-2-3-2-|

CHORUS
|-14--14--15--14-17-14------------------|
|-15--15--15--15-15-15------------------|
|---------------------------------1/7-8-|
|----------------------0-0--0---0-------|

Play this 12 times before going into the intro again, except on the twelth time go straight from the chords to the intro without playing the 000178, then go into the soft bridge for 12 times, on the fifth time when the singing comes in start playing it softer and softer.
BRIDGE (I CAN FEEL THEM PUSHING, I CAN FEEL THEM PULLING)
|-----------------------------|
|-----------------------------|
|-----0/6---1-3-5---1--5--0-1-|
|-0---------------------------|

Play this 8 times, the first three times are very out of time
but the next five are easywith a normal drum beat
HEAVY BRIDGE (CONSUME, TAKE IN, PLUNGING, PLUMBING)
|---------------------------|
|---------------------------|
|---------------------------|
|-1-0-0-2-1-0-1-0-0-2-1-0-0-|

Play the first part through once then play all of it through once
and the pause before going back into the chorus
|----------------------|-------|
|----------------------|-------|
|----------------------|-----0-|
|-3-2-3-2--3-2-3-2-3-2-|-3-5---|

This chorus is basically the same as the first but its a bit 
different at the end
CHORUS
|-14--14--15--14-17-14---------------------|
|-15--15--15--15-15-15---------------------|
|-----------------------------1/8--7-7-8-8-|
|----------------------0-0--0--------------|

Play this until the song fades out

Comments