Mudvayne - Patient Mental Chords & Tabs

 

Patient Mental Chords & Tabs

Mudvayne Chords & Tabs

Version: 1 Type: Bass Tab 0 ratings
1 star 2 stars 3 stars 4 stars 5 stars
comments

Patient Mental Bass Tab

   
band: Mudvayne
song: The Patient Mental

The bridge has very odd timing, 
so I suggest turning up your stereo REALLY loud and listening carefully. 

T = downward pluck or tap
st = strum
S = slap
( ) = harmonic

Intro (0:09)                            x3     then:
F -------|--------------------------------|-------------------------------
C -------|--------------------------------|-------------------------------
G -------|---------8-8--------------------|---------8-8-------------------
C -10\\--|-5h6-5h6-----6-5-0--5-6-0-5-3-0-|-5h6-5h6-----6-5-0--5-6-0-5-3--
                   T T                              T T
Verse   (0:30)
F -------------------------10-10-------------------------------------
C -0-0-10h12-13-0-12--13-0-------12--0-0-10h12-13-0-12--13-0-0-0-0-3-
G -------------------------------------------------------------------
C -------------------------------------------------------------------
[ Tab from: http://www.guitartabs.cc/tabs/m/mudvayne/patient_mental_btab.html ]
F --------------------------------------------------------
C --------------------3-3---------------------------------
G -----3h5-6---5--6-------5------3h5-6---5--6-------------
C -0-0-------0------0--------0-0-------0------0-0-0-0-0-3-
   
  (0:50) "Why won't they leave me..."   on the 4th time play this:
F --------------------------------|-------------------------------
C --------------------------------|-------------------------------
G ---------8-8--------------------|---------8-8-------------------
C -5h6-5h6-----6-5-0--5-6-0-5-3-0-|-5h6-5h6-----6-5-0--5-6-0-5-3--
           T T                              T T
Then repeat the three verse riffs.
           
Chorus   (1:30)
F -15-15-15-15-15---------------17-17-17--12-12-12-12-12-------------------------
C -15-15-15-15-15---------------17-17-17--12-12-12-12-12-------------------------
G --------------------------------------------------------------------------------
C ----------------0-0-0-0-0-0-0---------------------------0-1-0-1-1-0-1-0-1-0-1-0-
   st st st st st T T T T T T T st st st  st st st st st  T T T T T T T T T T T T
cont.   (1:40) "Why won't they leave him..."
F -----------------------------------------------------------
C -----------------------------------------------------------
G -----------------------------------------------------------
C -6p3-6p3-6p3-3-6p3-3-6p3-6p3-6-6p3-3-6p3-6p3-6p3-3-6p3-3-3-

Verse again (just the first two riffs) (1:54)

Chorus again (2:15)

Badass part   (2:39) tricky timing here
F ------------------------------------------------
C ------------------------------------------------
G ------------------------------------------------
C -0-0-0--0---0--0---0-0-0--0-0-0---0--0---0--0-0-
   S S S  S   S  S   S S S  S S S   S  S   S  S S

Pre-bridge   (2:49)
F --------------------
C --------------------
G --------------------
C -6---/8--3---/10----

Bridge   (2:57) Timing is VERY tricky here
F -13-12-10---------------------10--------------------------------------------
C ----------13--12---10---12-13----13-12--13-12-10---------------------10-----
G -------------------------------------------------13--11---10---11-13----11--
C ----------------------------------------------------------------------------

Chorus again (3:47)

Outro   (4:22)
F ------------------------(10)-----------------(10)------------
C --------------------(10)-------------------------(10)--------
G ----------------(10)---------------------------------(10)----
C -6---/8--3---/10--------------6---/8--3---/10----------------
Comments