Mudvayne - Nothing To Gein Chords & Tabs

 

Nothing To Gein Chords & Tabs

Mudvayne Chords & Tabs

Version: 1 Type: Tab 0 ratings
1 star 2 stars 3 stars 4 stars 5 stars
comments

Nothing To Gein Tab

   
Author/Artist: mudvayne 
Title: nothing to gein 
Album: ld50 
Tabed by Ats
 Tuning (B, F#, B, E, G#, C#). 
-|----------------|---------------|---------------|----------------|--*3------ 
-|----------------|---------------|---------------|----------------|---------- 
-|----------------|---------------|---------------|----------------|---------- 
-2-3-0-0-2-0-0-2-3|6-6-6-6-6-6-6-0|3-3-3-3-3-3-5-3|2-2-2-2-2-2-2-2-|---------- 
-2-3-0-0-2-0-0-2-3|5-5-5-5-5-5-5-0|3-3-3-3-3-3-5-3|3-3-3-3-3-3-3-3-|---------- 
-2h3-0-0-2-0-0-2-3|6-6-6-6-6-6-6-0|3-3-3-3-3-3-5-3|2-2-2-2-2-2-2-2-|---------- 
   "cold and silent..."                                   DO THREE TIMES       

-|----------------|---------------|-----------------|----------------------|-- 
-|----------------|---------------|-----------------|----------------------|-- 
-|7^-7-7-7-7-7-7-7|7p5-5-5-5-5-5-5|-5h7-7^-7-7-7-7-7|10-10-10-11-10-10\7-7-|-- 
-|----------------|---------------|-----------------|----------------------|-- 
-|5--5-5-5-5-5-5-5|5-5-5-5-5-5-5-5|-5-5-5--5-5-5-5-5|-7--7--7-----7--------|-- 
-|----------------|---------------|-----------------|------------------0---|-- 
  "one of my own.               In My Life...        I am so alone,            

-|----------------|---------------|-----------------|----------------------|-- 
-|----------------|---------------|-----------------|----------------------|-- 
-|7^-7-7-7-7-7-7-7|7p5-5-5-5-5-5-5|-5h7-7^-7-7-7-7-7|-2-2-2-2h3-2----------|-- 
-|----------------|---------------|-----------------|----------------------|-- 
-|5--5-5-5-5-5-5-5|5-5-5-5-5-5-5-5|-5-5-5--5-5-5-5-5|-0--------------------|-- 
-|----------------|---------------|-----------------|----------------------|-- 
 Left with no one              in my life         Im so alone..." GOTO RIFF 1  
[ Tab from: http://www.guitartabs.cc/tabs/m/mudvayne/nothing_to_gein_tab.html ]
--|-------------------------|-----------------------------------------------|- 
--|-x-x----x-x---x-x---x-x--|-----------------------------------------------|- 
--|-----x------x-----x-----x|-----------------------------------------------|- 
--|-------------------------|--9--9--9--9--9--9---9---9--9--9--9--9--9-8-8-8|- 
--|-------------------------|-10-10-10-10-10-10--10--10-10-10-10-10-10-9-9-9|- 
--|-------------------------|-----------------------------------------------|- 
   "shades of life.."         "mommy do you still live inside of me?"          

-|-----------------------------------|---------------------------------------- 
-|-----------------------------------|---------------------------------------- 
-|-----------------------------------|---------------------------------------- 
-|-----------------------------------|---------------------------------------- 
-|----5-x---5-x----5-x---5---8-----11|---------------------------------------- 
-|-/3-----0-----/3-----0---0---0-0---|---------------------------------------- 
 "With the sicknes..something...."   BACK TO MOMMY RIFF THEN RIFF 1 AGAIN      

-|-------------|------------------------------------|------------------------- 
-|-------------|------------------------------------|------------------------- 
-|-------------|------------------------------------|------------------------- 
-|-14p13-------|------------------------------------|------------------------- 
-|-------14p13-|----------------------------5------8|------------------------- 
-|-------------|0-0-0-0-0-0-0--0--0-0-0-0-0----0-3--|------------------------- 
 (more than 1ce)"If I wash my hands...     am I sick!?"                        

-|--------------------------------------------|------------------------------- 
-|--------------------------------------------|------------------------------- 
-|--------------------------------------------|------------------------------- 
-|--------------------------------------------|------------------------------- 
-|---5-----5-----5-------5---8---9---11-------|------------------------------- 
-|-0---0-0---0-0---0-0-0---0---0---0----0-0-13|------------------------------- 
   I really dont know this part...the timing is whacked.BACK TO WASH RIFF      

Comments