Mudvayne - Nothing To Gain Chords & Tabs

 

Nothing To Gain Chords & Tabs

Mudvayne Chords & Tabs

Version: 4 Type: Bass Tab 0 ratings
1 star 2 stars 3 stars 4 stars 5 stars
comments

Nothing To Gain Bass Tab

   
Artist - Mudvayne
Title  - Nothing To Gain
Volt3r (Volt3r@mail.ru) ICQ = 228639154

h - hammeron
p - pulloff
/ - slide upwards
\ - slidedownwards
* - staccato (muting after picking)
x(X) - Death note
R - rest
pm - Palm muted
s - slapping
p - popping
v - bend and release
^ - bend
H - hold
~ - vibrato
NOTE LENGHT
w - 1
h - 1/2
q - 1/4
e - 1/8
s - 1/16
t - 1/32
?.- dotted note (+ half of its own)

4str Bass
Tuning - BF#BE
Tempo 112

Intro

Starting with Drums
|-----|-------|-----|-----|---------|
|4----|--R----|-----|-----|--0-/12--|
|4----|-------|-----|-----|---------|
|--0--|----6--|--3--|--2--|---------|
   w     e h.+e  w     w     h. q
|-----12-------|----12------|---------------|
|--10----10-0--|--8----8-0--|--7-7h8-7------|
|--------------|------------|---------v7-0--|
|--------------|------------|---------------|
   q. q  q  e     q.q  q e     q.s s e q e
|--------7----|-----12-------|----9-10-10-10----|
|--0-H/7---7--|--10----10-0--|--8------------8--|
|-------------|--------------|------------------|
|-------------|--------------|------------------|
   h e e e e     q. q  q  e     q e q  e  e  e
|--9-9-10-12-H--|--H--|
|---------------|2----|
|---------------|4----|
|---------------|-----|
   e e e. h  s     h

Chorus

|----------------------|---------------------|
|4---------------------|---------------------|
|4---------------------|---------------------|
|--2h3-0-0-2-0-0-2-3/--|--6-6-6-6-6-6-6-0-0--|
   s s e e e e e e e      e e e e e e e s s
|-----------------|----------|
|--------3~-------|------v2--|
|-----------------|----------|
|--3-3-3---0-5-3--|--v2-x----|
   e e e q e e e      q.e h
|----------------------|---------------------|
|----------------------|---------------------|
|----------------------|---------------------|
|--2h3-0-0-2-0-0-2-3/--|--6-6-6-6-6-6-6-0-0--|
   s s e e e e e e e      e e e e e e e s s
|--------4-5------|------5-7---------|
|------3----------|----------6-------|
|------------3----|----7-------5-----|
|--3-3---------0--|--0-----------5\--|
   e e e q e e e     e e e e e e q
|----------------------|---------------------|
|----------------------|---------------------|
|----------------------|---------------------|
|--2h3-0-0-2-0-0-2-3/--|--6-6-6-6-6-6-6-0-0--|
   s s e e e e e e e      e e e e e e e s s
|-----------------|-----|
|--------3~0-5-3--|-v2^-|
|-----------------|-----|
|--3-3-3----------|-----|

Verse

|-------------------------|---------------------|
|4-----3-R-R-----9-R------|5-R---R---------6----|
|4-0h2-------0h8-----x----|4-----------------5--|
|----------------------0--|----0---0/5-3-5------|_______
   s s s.q t s s s.s.s e     e e q e e e e e e          |
|-------------------------|---------------16----------|  4x
|4-----3-R-R-----9-R------|5-----6---9----15----------|_|
|4-0h2-------0h8-----x----|4-------5/--8/-14-------5--|
|----------------------0--|--3/5-------------0-3/5----|
   s s s.q t s s s.s.s e     e e e e e e  e  e s s e
       * *     * * * S            * *     
|--------------------4--|3x|-------------------|
|--------------------x--|  |----------------R--|
|--------------------2--|  |-------------------|
|--2p0-0-0-2p0-0-0-0----|  |--2p0-0-0-2p0-0----|
   s s e e s s e e e e        s s e e s s e q.

REST 18 sec.

|-------------------------|---------------------|
|4-----3-R-R-----9-R------|5-R---R---------6----|
|4-0h2-------0h8-----x----|4-----------------5--|
|----------------------0--|----0---0/5-3-5------|
   s s s.q t s s s.s.s e     e e q e e e e e e          
|-------------------------|---------------16----------|  
|4-----3-R-R-----9-R------|5-----6---9----15----------|
|4-0h2-------0h8-----x----|4-------5/--8/-14-------5--|
|----------------------0--|--3/5-------------0-3/5----|
   s s s.q t s s s.s.s e     e e e e e e  e  e s s e
      * *     * * * S            * *     
|--------------------4--|3x|-------------------|
|--------------------x--|  |----------------R--|
|--------------------2--|  |-------------------|
|--2p0-0-0-2p0-0-0-0----|  |--2p0-0-0-2p0-0----|
   s s e e s s e e e e        s s e e s s e q.

Chorus
[ Tab from: http://www.guitartabs.cc/tabs/m/mudvayne/nothing_to_gain_btab_ver_4.html ]
|----------------------|---------------------|
|4---------------------|---------------------|
|4---------------------|---------------------|
|--2h3-0-0-2-0-0-2-3/--|--6-6-6-6-6-6-6-0-0--|
   s s e e e e e e e      e e e e e e e s s
|-----------------|----------|
|4-------3~-------|------v2--|
|4----------------|----------|
|--3-3-3---0-5-3--|--v2-x----|                 \
   e e e q e e e      q.e h                     |
|----------------------|---------------------|  |
|----------------------|---------------------|  |
|----------------------|---------------------|   2x
|--2h3-0-0-2-0-0-2-3/--|--6-6-6-6-6-6-6-0-0--|  |
   s s e e e e e e e      e e e e e e e s s     |
|--------4-5------|------5-7---------|          |
|------3----------|----------6-------|         /
|------------3----|----7-------5-----|
|--3-3---------0--|--0-----------5\--|
   e e e q e e e     e e e e e e q

Verse
|---------|6x
|3-R-R----|
|4--------|
|------0--|
   h e e
   * * * * * *               * * * * * P * * P
|-----------------------|--------------7-----10--| 4x
|4---------------0---R--|5-R-----------x-----x---|
|4----------------------|4-------------5-----8---|
|--0-0-0-0-0-0-x---0----|----0-0-0-0-0---0-0-----|
   e e e e e e s s s s     e e e e e e e e e e

   S P   S P   S P       S P P   S S P
|-------------------|--------2/7--------|
|4---0-R---0-R---0--|--R---0---------0--|
|4------------------|-------------------|
|--0-----0-----0----|----0-------x-x----|
   e e e e e e e e     e e e e e e e e

   S P S P  S P   S     P   S P   S P
|----8---10----------|-------------------|
|-------------0-R----|--0-R---0-R---0-R--|
|--------------------|-------------------|
|--x---x----0-----0--|------0-----0------|
   e e e e  e e e e     e e e e e e e e\

   S P P   S S P S     P S P
|------2/7----------|--8---10--|
|----0---------0----|3---------|
|-------------------|8---------|
|--0-------x-x---x--|----x-----|
   e e e e e e e e

   S S S S S S S P S         S S S S S P S S P
|-----------------------|--------------7-----10--| 4x
|4---------------0---R--|5-R-----------x-----x---|
|4----------------------|4-------------5-----8---|
|--0-0-0-0-0-0-x---0----|----0-0-0-0-0---0-0-----|
   e e e e e e s s s s     e e e e e e e e e e

Chorus

|----------------------|---------------------|
|4---------------------|---------------------|
|4---------------------|---------------------|
|--2h3-0-0-2-0-0-2-3/--|--6-6-6-6-6-6-6-0-0--|
   s s e e e e e e e      e e e e e e e s s
|-----------------|----------|
|--------3~-------|------v2--|
|-----------------|----------|
|--3-3-3---0-5-3--|--v2-x----|                 
   e e e q e e e      q.e h                     
|----------------------|---------------------|  
|----------------------|---------------------|  
|----------------------|---------------------| 
|--2h3-0-0-2-0-0-2-3/--|--6-6-6-6-6-6-6-0-0--|
   s s e e e e e e e      e e e e e e e s s   
|--------4-5------|------5-7---------|        
|------3----------|----------6-------|        
|------------3----|----7-------5-----|
|--3-3---------0--|--0-----------5\--|
   e e e q e e e     e e e e e e q
|----------------------|---------------------|
|----------------------|---------------------|
|----------------------|---------------------|
|--2h3-0-0-2-0-0-2-3/--|--6-6-6-6-6-6-6-0-0--|
   s s e e e e e e e      e e e e e e e s s
|-----------------|----------|
|--------3~-------|------v2--|
|-----------------|----------|
|--3-3-3---0-5-3--|--v2-x----|              
   e e e q e e e      q.e h 

Ending

Play while sound fading before next track starts
|-----|-------|-----|-----|---------|
|4----|--R----|-----|-----|--0-/12--|
|4----|-------|-----|-----|---------|
|--0--|----6--|--3--|--2--|---------|
   w     e h.+e  w     w     h. q
|-----12-------|----12------|---------------|
|--10----10-0--|--8----8-0--|--7-7h8-7------|
|--------------|------------|---------v7-0--|
|--------------|------------|---------------|
   q. q  q  e     q.q  q e     q.s s e q e
|--------7----|-----12-------|----9-10-10-10----|
|--0-H/7---7--|--10----10-0--|--8------------8--|
|-------------|--------------|------------------|
|-------------|--------------|------------------|
   h e e e e     q. q  q  e     q e q  e  e  e
|--9-9-10-12-H--|--H--|
|---------------|2----|
|---------------|4----|
|---------------|-----|
   e e e. h  s     h

Thanx
Comments