Mudvayne - Nothing To Gain Chords & Tabs

 

Nothing To Gain Chords & Tabs

Mudvayne Chords & Tabs

Version: 1 Type: Bass Tab 0 ratings
1 star 2 stars 3 stars 4 stars 5 stars
comments

Nothing To Gain Bass Tab

   
Artist - Mudvayne
Song - Nothing to Gain
Album -Ld50
Tunning - B F# B F#
Tabbed By - MuddHunter
Commen t- PLEASE RATE MY TAB

Intro
-----------------------------------------------------------------12-
--------------------------------------------------17----------------
-------------------------------------------17-15-----15---10-13-----
-10-----/16------13------12------10---14/17-------------------------
 

------------------------------------------------------------------------
----------------------11----------------17------------11-10-11-11-12-12-
-13--0-12---13-12-----------------17-15-----15---17-17------------------
-----------------13-12--10---14/17--------------------------------------


Chorus
-----------------------------------------------------------------
---------------------------------------4-4---------------7h5-5^--
-----------------------------------------------------------------
-2-0-0-2-0-0-2-3/6-6-6-6-6-6-6-6-3-3-3-----3-5-3-2-2-2-2---------

---------------------------------------6--------------4-----------
-------------------------------------5-----5--------3---3---------
---------------------------------------------4-----4------4-------
-2-0-0-2-0-0-2-3/6-6-6-6-6-6-6-6-3-3-----------3-2-----------2-0--

-----------------------------------------------------------------
---------------------------------------5-5-5h7p5-4p5-4p5-4p5-4p5-
-----------------------------------------------------------------
-2-0-0-2-0-0-2-3/6-6-6-6-6-6-6-6-3-3-3---------------------------

That little Shaft Style part (hehe..Shaft)
------------6-----------------------------------6-----------------------6--------
-----5--5h7----------------------8-------5--5h7----------------8-----------------
-5h7-----------------------5---7---7-5h7--------------7--0h5h7----0h5h7---7----7-
---------------0--0--0-4/7---7--------------------4/7-------------------------7--

Verse 1
------------6-----------------------------------6-----------------------6--------
-----5--5h7----------------------8-------5--5h7----------------8-----------------
-5h7-----------------------5---7---7-5h7--------------7--0h5h7----0h5h7---7----7-
---------------0--0--0-4/7---7--------------------4/7-------------------------7--

Quick Interlude
----------------10---
---------------------
-2-0-0-2-0-0-0-------x 4
---------------------
[ Tab from: http://www.guitartabs.cc/tabs/m/mudvayne/nothing_to_gain_btab.html ]
Verse 2
------------6-----------------------------------6-----------------------6--------
-----5--5h7----------------------8-------5--5h7----------------8-----------------
-5h7-----------------------5---7---7-5h7--------------7--0h5h7----0h5h7---7----7-
---------------0--0--0-4/7---7--------------------4/7-------------------------7--

Quick Interlude
----------------10---
---------------------
-2-0-0-2-0-0-0-------x 4
---------------------

Chorus
-----------------------------------------------------------------
---------------------------------------4-4---------------7h5-5^--
-----------------------------------------------------------------
-2-0-0-2-0-0-2-3/6-6-6-6-6-6-6-6-3-3-3-----3-5-3-2-2-2-2---------

---------------------------------------6--------------4-----------
-------------------------------------5-----5--------3---3---------
---------------------------------------------4-----4------4-------
-2-0-0-2-0-0-2-3/6-6-6-6-6-6-6-6-3-3-----------3-2-----------2-0--

-----------------------------------------------------------------
---------------------------------------4-4---------------7h5-5^--
-----------------------------------------------------------------
-2-0-0-2-0-0-2-3/6-6-6-6-6-6-6-6-3-3-3-----3-5-3-2-2-2-2---------

---------------------------------------6--------------4-----------
-------------------------------------5-----5--------3---3---------
---------------------------------------------4-----4------4-------
-2-0-0-2-0-0-2-3/6-6-6-6-6-6-6-6-3-3-----------3-2-----------2-0--

In this part wait till Gurg Finishes the little "Solo Thing"
                                 p      p
---------------------------------4------7--
-------------------------------------------
-------------------------------------------
----0-0-0-0-0-0-0-----0---0-0-0-----0-0----
    ^If i soak my hands in others Blood.....

You suppose to pop all of these
-------------------------------14---------15---17-------------------------14------------------15---17-
-12----12----12----12----12------------13---------------------------------------13--------------------
-----------------------------------13--------15-----12-----12----12-----------12---13-13---13---15----
-----------------------------10-----------------------------------------------------------------------

Outro
---------------------------------12--------------------------------------------------------------------------------
------------------17-------------------------------------------11---------------17-------------14-15---14-14-15-17-
------------17-5-----15---10--13------13--10-12-----13-12-----------------17-15------15---17-17--------------------
-10---14/17-----------------------------------------------13-2---0---14/17-----------------------------------------
                
Thats All Folks Hehe ..... Shaft Part....
Comments