Mudvayne - Not Falling Chords & Tabs

 

Not Falling Chords & Tabs

Mudvayne Chords & Tabs

Version: 5 Type: Tab 0 ratings
1 star 2 stars 3 stars 4 stars 5 stars
comments

Not Falling Tab

|---------------------------------------------|
|---------------------------------------------|
|---------------------------------------------|  
|-8/7--7--7--7--7--7--7--7--7--7--7--7-------|   X4
|-x/x--x--x--x--x--x--x--x--x--x--x--x-------|
|-6/5--5--5--5--5--5--5--5--5--5--5--5-------|

|-------------------------------------|
|-------------------------------------|
|-------------------------------------|
|-------------------------------------|    |
|-0-3-0--00-3-0--00-3-0-3-0-----------|    |
|-0-3-0--00-3-0--00-3-0-3-0-----------|    |
                                           | X3
|-------------------------------------|    |
|-------------------------------------|    |
|-10-10-10-10-/9--9--9--9-------------|    |
|-x--x--x--x--/x--x--x--x-------------|
|-8--8--8--8--/7--7--7--7-------------|
|-------------------------------------|
[ Tab from: http://www.guitartabs.cc/tabs/m/mudvayne/not_falling_tab_ver_5.html ]
|--------------------------|
|--------------------------|
|--------------------------|
|--------------------------|
|-3-0--00-3-0--------------|
|-3-0--00-3-0--------------|


|-------------------------------|   |---------------------------|  |---------------------------| 
|-------------------------------|   |---------------------------|  |---------------------------|
|-10-10-10-10-10-10-10-10-------|   |--9--9--9--9--9--9--9--9---|  |--9--9--9--9--9------------|
|-x--x--x--x--x--x--x--x--------|   |--x--x--x--x--x--x--x--x---|  |--x--x--x--x--x------------|
|-8--8--8--8--8--8--8--8--------|   |--7--7--7--7--7--7--7--7---|  |--5--5--5--5--5------------|
|-------------------------------|   |---------------------------|  |---------------------------|


|---------------------------| |-------------------------------|
|---------------------------| |-------------------------------| 
|--9--9--9--9--9--9--9--9---| |-10-10-10-10-10-10-10-10-------|
|--x--x--x--x--x--x--x--x---| |-x--x--x--x--x--x--x--x--------| 
|--7--7--7--7--7--7--7--7---| |-8--8--8--8--8--8--8--8--------|
|---------------------------| |-------------------------------| 
Comments