Mudvayne - Not Falling Chords & Tabs

 

Not Falling Chords & Tabs

Mudvayne Chords & Tabs

Version: 3 Type: Tab 0 ratings
1 star 2 stars 3 stars 4 stars 5 stars
comments

Not Falling Tab


    MuDvAyNe
    Not Falling
    Tuning-CGCFAD, yes, you heard right, CGCFAD. Different from there usual tuning which is a flat lower.



intro
|-------------------------------------------|
|-------------------------------------------|
|--5-4--------------------------------------|
|--x-x-strum-the-second-chord-a-whole-bunch-|
|--3-2--------------------------------------|
|-------------------------------------------|
[ Tab from: http://www.guitartabs.cc/tabs/m/mudvayne/not_falling_tab_ver_3.html ]
chorus
|------------------------------------------------------|
|------------------------------------------------------|
|----------------------------------10-10-10-10-9-9-9-9-|
|-----------------------------------x--x--x--x-x-x-x-x-|
|--0-3-0--1-0-0-3-0--1-0-0-3-0--1-0-8--8--8--8-7-7-7-7-|
|--0-3-0--1-0-0-3-0--1-0-0-3-0--1-0--------------------|

verse
|-some-chords-like:-----------|
|-----------------------------|
|-------------------11--10--7-|
|--------------------x---x--x-|
|--------------------9,--8,-5-|
|-----------------------------|

bridge
|-------------------------------|
|-------------------------------|
|-16-15-------------------------|
|--x--x--then-some-other-chords-|
|-14-13-------------------------|
|-------------------------------|

get their new cd!!!!!!!!!!!!!!!!!!!!!!!!!!!!!!!!!!!!!!!!!!!!!!!!!!!!!!!!!!!!!!!!!!!!!!!!!!!!!!!!!!!!!!!!!!!!!!!!!!!!!!!!!!!!!!!!!!!!!!!!!!!!!!!!!!!!!!!!!!!!!!!!!!!!!!!!!!!!!!!!!!!!!!!!!!!!!!!!!!!!!!!!!!!!!!!!!!!!!!!!!!!!!!!!
Comments