Mudvayne - Not Falling Chords & Tabs

 

Not Falling Chords & Tabs

Mudvayne Chords & Tabs

Version: 2 Type: Tab 1 rating
1 star 2 stars 3 stars 4 stars 5 stars
comments

Not Falling Tab

   
Author/Band: Mudvayne
Song: Not Falling
Length: 4:03
Album: The End Of All Things To Come
Release Date: November 19 2002 (America only)
Tuning: Drop D, Down 1 whole Step (C,G,C,F,A,D)
Tabbed by: KoRotz (Courtney Marr)
Email: epat_skateboarding@hotmail.com

Key
h - hammer on
p - pull off
* - palm mute
x - mute
/ - slide up
\ - slide down

Hey guys I thought I'd try and tab Mudvayne's new single, 
but this time in drop C tuning thanks to a friend of mine that
pointed it out to me so here it is.  I aswell think that its easier
this way!

Thanks greg

Get it off Kazaa

Oh well here it is enjoy

Intro A(0:00)
----------------------------------------|
----------------------------------------|
--544444444444444454444444444444444-----|
--xxxxxxxxxxxxxxxxxxxxxxxxxxxxxxxxx-----|
--322222222222222232222222222222222-----|
----------------------------------------|

Intro B(0:07)                                       Fill (0:18)
----------------------------------------------------|--------------------|
----------------------------------------------------|--------------------|
-------------------------------10101010--9-9-9-9----|--------------------|
--------------------------------x-x-x-x--x-x-x-x----|--------------------|
-0h3p0-0h3-0h3p0-0h3-0h3p0-2-0--8-8-8-8--7-7-7-7----|-0h3p0-0h3-0h3p0----|
-0h3p0-0h3-0h3p0-0h3-0h3p0-2-0----------------------|-0h3p0-0h3-0h3p0----|

Verse (0:20)
---------------------------------------------------------|
---------------------------------------------------------|
10101010101010109999999997777777771212121210141414141414-|
-x-x-x-x-x-x-x-xxxxxxxxxxxxxxxxxxx-x-x-x-x-xx-x-x-x-x-x--|
-8-8-8-8-8-8-8-877777777755555555510101010-8121212121212-|
---------------------------------------------------------|

-----------------|
-----------------|
--99999998888888-|
--xxxxxxxxxxxxxx-|
--77777775555555-|
-----------------|

---------------------------------------------------------|
---------------------------------------------------------|
10101010101010109999999997777777771212121210141414141414-|
-x-x-x-x-x-x-x-xxxxxxxxxxxxxxxxxxx-x-x-x-x-xx-x-x-x-x-x--|
-8-8-8-8-8-8-8-877777777755555555510101010-8121212121212-|
---------------------------------------------------------|

-----------------|
-----------------|
--99999998888888-|
--xxxxxxxxxxxxxx-|
--77777775555555-|
-----------------|

Chorus 2x(0:44)
----------------------------------------------------|
----------------------------------------------------|
-------------------------------10101010--9-9-9-9----|
--------------------------------x-x-x-x--x-x-x-x----|
-0h3p0-0h3-0h3p0-0h3-0h3p0-2-0--8-8-8-8--7-7-7-7----|
-0h3p0-0h3-0h3p0-0h3-0h3p0-2-0----------------------|

----------------------------------------------------|
----------------------------------------------------|
-------------------------------10101010--9-9-9-9----|
--------------------------------x-x-x-x--x-x-x-x----|
-0h3p0-0h3-0h3p0-0h3-0h3p0-2-0--8-8-8-8--7-7-7-7----|
-0h3p0-0h3-0h3p0-0h3-0h3p0-2-0----------------------|

----------------------------------------------------|
----------------------------------------------------|
-------------------------------10101010--9-9-9-9----|
--------------------------------x-x-x-x--x-x-x-x----|
-0h3p0-0h3-0h3p0-0h3-0h3p0-2-0--8-8-8-8--7-7-7-7----|
-0h3p0-0h3-0h3p0-0h3-0h3p0-2-0----------------------|

(0:55)                     Fill
---------------------------|------------------|
---------------------------|------------------|
-5555-5555-55-5555-5555----|------------------|
-3333-3333-33-3333-3333----|------------------|
-3333-3333-33-3333-3333----|-0h3p0-0h3-0h3p0--|
-3333-3333-33-3333-3333----|-0h3p0-0h3-0h3p0--|

Verse (1:15)2x
-------------------------------------------------------------------|
-------------------------------------------------------------------|
1010101010101010--999999999--777777777--12121212--10--141414141414-|
-x-x-x-x-x-x-x-x--xxxxxxxxx--xxxxxxxxx---x-x-x-x---x---x-x-x-x-x-x-|
-8-8-8-8-8-8-8-8--777777777--555555555--10101010---8--121212121212-|
-------------------------------------------------------------------|

-------------------------------------------------------------------|
-------------------------------------------------------------------|
1010101010101010--999999999--777777777--12121212--10--141414141414-|
-x-x-x-x-x-x-x-x--xxxxxxxxx--xxxxxxxxx---x-x-x-x---x---x-x-x-x-x-x-|
-8-8-8-8-8-8-8-8--777777777--555555555--10101010---8--121212121212-|
-------------------------------------------------------------------|

-----------------|
-----------------|
--99999998888888-|
--xxxxxxxxxxxxxx-|
--77777775555555-|
-----------------|

---------------------------------------------------------|
---------------------------------------------------------|
10101010101010109999999997777777771212121210141414141414-|
-x-x-x-x-x-x-x-xxxxxxxxxxxxxxxxxxx-x-x-x-x-xx-x-x-x-x-x--|
-8-8-8-8-8-8-8-877777777755555555510101010-8121212121212-|
---------------------------------------------------------|

-----------------|
-----------------|
--99999998888888-|
--xxxxxxxxxxxxxx-|
--77777775555555-|
-----------------|
[ Tab from: http://www.guitartabs.cc/tabs/m/mudvayne/not_falling_tab_ver_2.html ]
---------------------------------------------------------|
---------------------------------------------------------|
10101010101010109999999997777777771212121210141414141414-|
-x-x-x-x-x-x-x-xxxxxxxxxxxxxxxxxxx-x-x-x-x-xx-x-x-x-x-x--|
-8-8-8-8-8-8-8-877777777755555555510101010-8121212121212-|
---------------------------------------------------------|
                 FILL
-----------------|----------------|
-----------------|----------------|
--99999998888888-|-101010109999---|
--xxxxxxxxxxxxxx-|--x-x-x-xxxxx---|
--77777775555555-|--8-8-8-87777---|
-----------------|----------------|

Chorus 2x(2:00)
----------------------------------------------------|
----------------------------------------------------|
-------------------------------10101010--9-9-9-9----|
--------------------------------x-x-x-x--x-x-x-x----|
-0h3p0-0h3-0h3p0-0h3-0h3p0-2-0--8-8-8-8--7-7-7-7----|
-0h3p0-0h3-0h3p0-0h3-0h3p0-2-0----------------------|

----------------------------------------------------|
----------------------------------------------------|
-------------------------------10101010--9-9-9-9----|
--------------------------------x-x-x-x--x-x-x-x----|
-0h3p0-0h3-0h3p0-0h3-0h3p0-2-0--8-8-8-8--7-7-7-7----|
-0h3p0-0h3-0h3p0-0h3-0h3p0-2-0----------------------|

----------------------------------------------------|
----------------------------------------------------|
-------------------------------10101010--9-9-9-9----|
--------------------------------x-x-x-x--x-x-x-x----|
-0h3p0-0h3-0h3p0-0h3-0h3p0-2-0--8-8-8-8--7-7-7-7----|
-0h3p0-0h3-0h3p0-0h3-0h3p0-2-0----------------------|

                           Fill
---------------------------|------------------|
---------------------------|------------------|
-5555-5555-55-5555-5555----|------------------|
-3333-3333-33-3333-3333----|------------------|
-3333-3333-33-3333-3333----|-0h3p0-0h3-0h3p0--|
-3333-3333-33-3333-3333----|-0h3p0-0h3-0h3p0--|

Bridge (2:31)                Fill
-7777777777777777777777------|-------------------------|
-6666666666666666666666------|-------------------------|
-4444444444444444444444------|-------------------------|
-----------------------------|-------------------------|
-----------------------------|-3-2-0---3-2-0--3-2-0----|
-----------------------------|-3-2-0---3-2-0--3-2-0----|
                               * * *   * * *  * * * 
-7777777777777777777777------|-------------------------|
-6666666666666666666666------|-------------------------|
-4444444444444444444444------|-------------------------|
-----------------------------|-------------------------|
-----------------------------|-3-2-0---3-2-0--3-2-0----|
-----------------------------|-3-2-0---3-2-0--3-2-0----|
                               * * *   * * *  * * *
				     Fill 4x
-7777777777777777777777------|-------------------------|
-6666666666666666666666------|-------------------------|
-4444444444444444444444------|-------------------------|
-----------------------------|-------------------------|
-----------------------------|-3-2-0---3-2-0--3-2-0----|
-----------------------------|-3-2-0---3-2-0--3-2-0----|
                               * * *   * * *  * * *
(2:54)
-77777777777777777777777777777777777---|
-66666666666666666666666666666666666---|
-44444444444444444444444444444444444---|
---------------------------------------|
---------------------------------------|
---------------------------------------|

(3:01)
--88888888888-----------8888888888--------------|
--77777777777-----------7777777777--------------|
--55555555555-----------5555555555--------------|
------------------------------------------------|
------------------------------------------------|
---------------0/6\0/6\------------0/6\0/6\-----|

--88888888888-----------8888888888--------------|
--77777777777-----------7777777777--------------|
--55555555555-----------5555555555--------------|
------------------------------------------------|
------------------------------------------------|
---------------0/6\0/6\------------0/6\0/6\-----|

(3:09)2x
--88888888888-----------8888888888--------------|
--77777777777-----------7777777777--------------|
--55555555555-----------5555555555--------------|
---------------0/6\0/6\------------0/6\0/6\-----|
---------------0/6\0/6\------------0/6\0/6\-----|
---------------0/6\0/6\------------0/6\0/6\-----|

(3:23)
-88888888888--888888--88888888888-----|
-77777777777--777777--77777777777-----|
-55555555555--555555--55555555555-----|
--------------------------------------|
--------------------------------------|
--------------------------------------|

Chorus 2x (3:29)
----------------------------------------------------|
----------------------------------------------------|
-------------------------------10101010--9-9-9-9----|
--------------------------------x-x-x-x--x-x-x-x----|
-0h3p0-0h3-0h3p0-0h3-0h3p0-2-0--8-8-8-8--7-7-7-7----|
-0h3p0-0h3-0h3p0-0h3-0h3p0-2-0----------------------|

----------------------------------------------------|
----------------------------------------------------|
-------------------------------10101010--9-9-9-9----|
--------------------------------x-x-x-x--x-x-x-x----|
-0h3p0-0h3-0h3p0-0h3-0h3p0-2-0--8-8-8-8--7-7-7-7----|
-0h3p0-0h3-0h3p0-0h3-0h3p0-2-0----------------------|

----------------------------------------------------|
----------------------------------------------------|
-------------------------------10101010--9-9-9-9----|
--------------------------------x-x-x-x--x-x-x-x----|
-0h3p0-0h3-0h3p0-0h3-0h3p0-2-0--8-8-8-8--7-7-7-7----|
-0h3p0-0h3-0h3p0-0h3-0h3p0-2-0----------------------|

                           Fill
---------------------------|------------------|
---------------------------|------------------|
-5555-5555-55-5555-5555----|------------------|
-3333-3333-33-3333-3333----|------------------|
-3333-3333-33-3333-3333----|-0h3p0-0h3-0h3p0--|
-3333-3333-33-3333-3333----|-0h3p0-0h3-0h3p0--|

That's it I think oh well enjoy
Shout out.......AGAIN (lol) to all my Mudvayne rockin' friends out there 
Isaac, Jabez, Ben Joruma & LIL'O' WANEY and a huge thanks to 
greg gauthier 




Comments