Mudvayne - Not Falling Chords & Tabs

 

Not Falling Chords & Tabs

Mudvayne Chords & Tabs

Version: 1 Type: Tab 0 ratings
1 star 2 stars 3 stars 4 stars 5 stars
comments

Not Falling Tab

   
MUDVAYNE
Not Falling
from the album “The End of All Things to Come”

Tuning (low to high):  C-G-C-F-A#-D
whole song in distortion

Intro:
[--------------------------------
[--------------------------------
[5-4-4-4-4-4-4-4-4-4-4-4-4-4-4-4-
[--------------------------------  play 3X
[3-2-2-2-2-2-2-2-2-2-2-2-2-2-2-2-
[--------------------------------

[--------------------------------
[--------------------------------
[5-4-4-4-4-4-4-4-4---------------
[--------------------------------
[3-2-2-2-2-2-2-2-2---------------
[--------------------------------

[--------------------------------
[--------------------------------\
[-------------------------------- \
[0-3-0-------0-3-0-3-0-------0-3-  \
[0-3-0-------0-3-0-3-0-------0-3-   \
[0-3-0-------0-3-0-3-0-------0-3-    \
                                     play 3X
[----------------------------------- /
[-----------------------------------/
[---------------10-10-10-10-9-9-9-9-
[0-3-0---0-3-0----------------------
[0-3-0---0-3-0---8--8--8--8-7-7-7-7-
[0-3-0---0-3-0----------------------

[--------------------------------
[--------------------------------
[--------------------------------
[0-3-0-------0-3-0-3-0-----------
[0-3-0-------0-3-0-3-0-----------
[0-3-0-------0-3-0-3-0-----------

Verse (a little quieter now):
[---------------------------------------------
[---------------------------------------------
[10-10-10-10-10-10-10-10-10-10-10-10-10-10-10-
[---------------------------------------------
[-8--8--8--8--8--8--8--8--8--8--8--8--8--8--8-
[---------------------------------------------

[--------------------------------
[--------------------------------
[9-9-9-9-9-9-9-9-9-9-9-9-9-9-9-9-
[--------------------------------
[7-7-7-7-7-7-7-7-7-7-7-7-7-7-7-7-
[--------------------------------

[--------------------------------
[--------------------------------
[7-7-7-7-7-7-7-7-7-7-7-7-7-7-7-7-
[--------------------------------
[5-5-5-5-5-5-5-5-5-5-5-5-5-5-5-5-
[--------------------------------

[------------------------
[------------------------
[12-12-12-12-12-12-10-10-
[------------------------
[10-10-10-10-10-10--8--8-
[------------------------

[------------------------------------------------
[------------------------------------------------
[14-14-14-14-14-14-14-14-14-14-14-14-14-14-14-14-
[------------------------------------------------
[12-12-12-12-12-12-12-12-12-12-12-12-12-12-12-12-
[------------------------------------------------

[--------------------------------
[--------------------------------
[9-9-9-9-9-9-9-9-9-9-9-9-9-9-9-9-
[--------------------------------
[7-7-7-7-7-7-7-7-7-7-7-7-7-7-7-7-
[--------------------------------

[--------------------------------
[--------------------------------
[7-7-7-7-7-7-7-------------------
[--------------------------------
[5-5-5-5-5-5-5-------------------
[--------------------------------

Chorus (play whole thing twice):
[--------------------------------
[--------------------------------\
[-------------------------------- \
[0-3-0-------0-3-0-3-0-------0-3-  \
[0-3-0-------0-3-0-3-0-------0-3-   \
[0-3-0-------0-3-0-3-0-------0-3-    \
                                     play 3X
[----------------------------------- /
[-----------------------------------/
[---------------10-10-10-10-9-9-9-9-
[0-3-0---0-3-0----------------------
[0-3-0---0-3-0---8--8--8--8-7-7-7-7-
[0-3-0---0-3-0----------------------

[--------------------------------
[--------------------------------
[5-5-5-5-----5-5-5-5-----5-5-----
[-------------------------------- play 2X
[3-3-3-3-----3-3-3-3-----3-3-----
[--------------------------------

Post-chorus:
[--------------------------------
[--------------------------------
[--------------------------------
[0-3-0-------0-3-0-3-0-----------
[0-3-0-------0-3-0-3-0-----------
[0-3-0-------0-3-0-3-0-----------

Bridge 1
[-------------------------------------
[-------------------------------------
[10-10-10-10-10-10-10-----------------
[-------------------------------------
[-8--8--8--8--8--8--8-----------------
[-------------------------------------

[--------------------------------
[--------------------------------
[9-9-9-9-9-9-9-9-----------------
[--------------------------------
[7-7-7-7-7-7-7-7-----------------
[--------------------------------
[ Tab from: http://www.guitartabs.cc/tabs/m/mudvayne/not_falling_tab.html ]
[--------------------------------
[--------------------------------
[7-7-7-7-7-7-7-7-----------------
[--------------------------------
[5-5-5-5-5-5-5-5-----------------
[--------------------------------

[------------------------
[------------------------
[12-12-12-12-12-12-10-10-
[------------------------
[10-10-10-10-10-10--8--8-
[------------------------

[------------------------------------------------
[------------------------------------------------
[14-14-14-14-14-14-14-14-14-14-14-14-14-14-14-14-
[------------------------------------------------
[12-12-12-12-12-12-12-12-12-12-12-12-12-12-12-12-
[------------------------------------------------

[-------------------------------------
[-------------------------------------
[10-10-10-10-10-10-10-----------------
[-------------------------------------
[-8--8--8--8--8--8--8-----------------
[-------------------------------------

[--------------------------------
[--------------------------------
[9-9-9-9-9-9-9-9-----------------
[--------------------------------
[7-7-7-7-7-7-7-7-----------------
[--------------------------------

[--------------------------------
[--------------------------------
[7-7-7-7-7-7-7-7-----------------
[--------------------------------
[5-5-5-5-5-5-5-5-----------------
[--------------------------------

[------------------------
[------------------------
[12-12-12-12-12-12-10-10-
[------------------------
[10-10-10-10-10-10--8--8-
[------------------------

[------------------------------------------------
[------------------------------------------------
[14-14-14-14-14-14-14-14-14-14-14-14-14-14-14-14-
[------------------------------------------------
[12-12-12-12-12-12-12-12-12-12-12-12-12-12-12-12-
[------------------------------------------------

[--------------------------------
[--------------------------------
[9-9-9-9-9-9-9-9-9-9-9-9-9-9-9-9-
[--------------------------------
[7-7-7-7-7-7-7-7-7-7-7-7-7-7-7-7-
[--------------------------------

[--------------------------------
[--------------------------------
[7-7-7-7-7-7-7-7-7-7-7-7-7-7-7-7-
[--------------------------------
[5-5-5-5-5-5-5-5-5-5-5-5-5-5-5-5-
[--------------------------------

verse

Post-verse
[----------------------------
[----------------------------
[--------10-10-10-10-9-9-9-9-
[----------------------------
[---------8--8--8--8-7-7-7-7-
[----------------------------

chorus

post-chorus

Bridge 2:
[--------------------------------
[--------------------------------
[5-4-4-4-4-4-4-4-4-4-4-4-4-4-4-4-
[--------------------------------
[3-2-2-2-2-2-2-2-2-2-2-2-2-2-2-2-
[--------------------------------\
                                  \ 
[--------------------------------  \
[--------------------------------   \
[4-4-4-4-4-4-4-4-4-4-4-4-4-4-4-4-    \
[3-3-3-3-3-3-3-3-3-3-3-3-3-3-3-3-    play 3X
[2-2-2-2-2-2-2-2-2-2-2-2-2-2-2-2-    /
[3-3-3-3-3-3-3-3-3-3-3-3-3-3-3-3-   /
                                   /
(twice) (palm muted)              /
[--------------------------------/
[--------------------------------
[--------------------------------
[--------------------------------
[--------------------------------
[3-2-0-2-0-2-3-2-0-2-0-2-3-2-0---

(palm muted)
[--------------------------------
[--------------------------------
[--------------------------------
[--------------------------------
[--------------------------------
[3-2-0-2-0-2-3-2-0-2-0-2-3-2-0---

[--------------------------------
[--------------------------------
[5-4-4-4-4-4-4-4-4-4-4-4-4-4-4-4-
[--------------------------------
[3-2-2-2-2-2-2-2-2-2-2-2-2-2-2-2-\
[-------------------------------- \
                                  play 2X
[-------------------------------- /
[--------------------------------/
[4-4-4-4-4-4-4-4-4-4-4-4-4-4-4-4-
[3-3-3-3-3-3-3-3-3-3-3-3-3-3-3-3-
[2-2-2-2-2-2-2-2-2-2-2-2-2-2-2-2-
[3-3-3-3-3-3-3-3-3-3-3-3-3-3-3-3-

[------------------------------------------------
[12-12-12-12-12-12-12-12-12-12-12-12-12-12-12-12-
[11-11-11-11-11-11-11-11-11-11-11-11-11-11-11-11-
[10-10-10-10-10-10-10-10-10-10-10-10-10-10-10-10-
[------------------------------------------------\
[------------------------------------------------ \
                                                  play 2X           
[--------------------------------                 /
[--------------------------------                /
[-------------------------------- 
Comments