Mudvayne - Not Falling Chords & Tabs

 

Not Falling Chords & Tabs

Mudvayne Chords & Tabs

Version: 5 Type: Bass Tab 0 ratings
1 star 2 stars 3 stars 4 stars 5 stars
comments

Not Falling Bass Tab

   
Artist - Mudvayne
Title  - Not Falling
From   - The End of All Things to Come
Volt3r (Volt3r@mail.ru) ICQ = 228639154

h - hammeron
p - pulloff
/ - slide upwards
\ - slide downwards
* - staccato (muting after picking)
x(X) - Death note
R - rest
pm - Palm muted
S(s) - slapping 
P(p) - popping
v - bend and release
^ - bend
H - hold
~ - vibrato
NOTE LENGHT
w - 1
h - 1/2
q - 1/4
e - 1/8
s - 1/16
t - 1/32
?.- dotted note (+ half of its own)

4str Bass
Tuning - BF#BE
Tempo 130

Intro

A

|--5-4-4-4-4-4-4-4-4-4-4-4-4-4-4-4--|3x|--5-4-4-4-4-4-4-4-4--------|
|4----------------------------------|  |--------------------x-x-x--|
|4-3-2-2-2-2-2-2-2-2-2-2-2-2-2-2-2--|  |--------------------x-x-x--|
|-----------------------------------|  |--------------------x-x-x--|
   s s s s s s s s s s s s s s s s        s s s s s s s s q e s s 
B

|-----------------------|---------------------------|
|4----------------------|---------------------------|
|4----------------------|---------------------------|
|--0-3-0-0-3-0-3-0-0-3--|--0-3-0-0-3-0-6-6-6-5-5-5--|
   s s q s s s s q s s     s s e s s e e s s e s s 
|-----------------------|--------------10101010-9-9-9-9--|
|4----------------------|--------------------------------|
|4----------------------|--------------8-8-8-8--7-7-7-7--|
|--0-3-0-0-3-0-3-0-0-3--|--0-3-0-0-3-0-------------------|
   s s q s s s s q s s     s s e s s e s s s s  s s s s
|-------------------|
|4------------------|
|4------------------|
|--0-3-0-0-3-0-3-0--|
   s s q s s s s q.

Verse

|-----------------------------------|
|4---------------------------12-----|
|4--------------------/10/12----12--|
|--/12-12-12-12-12-12---------------|
    e  s  s  s  s  q   s  s  e  e
|----------------------------------|
|4---------------------------------|
|4-------------/10-10/12-12-10-----|
|--/10-10-10-10----------------10--|
    e  s  s  e  e  s  s  e  e  e
|-------------------------|--------------|
|4-----------8/10-10-8----|5-------------|
|4--------/8--------------|8-------------|
|-/8-8-8-8-------------8--|--/7-7-7-7-5\-|
   e s s e e s s  e  e e      e s s e q
|---------------------|-------------------------|
|4--------------------|-------------------------|
|4--------------------|-------------------------|
|-\3-3-3-3-3-5-5-7-3--|--2-2-2-2-2-0-3-5-3-3-5/-|
   e s s e e e e e e     e s s s s e e e s s e
|-----------|
|2----------|
|4----------|
|--0-0/3-0--|
   e.s e e
|------------------------------|
|4-----------------------------|
|4----------12-12h14-14-12-----|
|-/12-12-12----------------12--|
   e. s  e  e  s  s  e  e  e
|---------------------------------|
|4--------------------------------|
|4-------------10-10h12-10-10-----|
|-/10-10-10-10----------------10--|
   e  s  s  e  e  s  s  e  e  e
|----------------------|--------------|
|4-----------8/10-8----|5-------------|
|4---------8-----------|8-------------|
|-/8-8-8-8----------8--|--/7-7-7-7-5\-|
   e s s e e s e. e e      e s s e q
|---------------------|-------------------------|
|4--------------------|-------------------------|
|4--------------------|-------------------------|
|--3-3-3-3-3-5-5-7-3--|--2-2-2-2-2-0-3-5-3-3-5\-|
   e s s e e e e e e     e s s s s e e e s s e 
|----------19--|
|4-------------|
|4-------------|
|--0-0-0-0-----|
   e s s e h+e

Chorus

|-----------------------|---------------------------|
|4----------------------|---------------------------|
|4----------------------|---------------------------|
|--0-3-0-0-3-0-3-0-0-3--|--0-3-0-0-3-0-6-6-6-5-5-5--|
   s s q s s s s q s s     s s e s s e e s s e s s 
|-----------------------|--------------10101010-9-9-9-9--|
|4----------------------|--------------------------------|
|4----------------------|--------------8-8-8-8--7-7-7-7--|
|--0-3-0-0-3-0-3-0-0-3--|--0-3-0-0-3-0-------------------|
   s s q s s s s q s s     s s e s s e s s s s  s s s s
|-----------------------|---------------------------|
|4----------------------|---------------------------|
|4----------------------|---------------------------|
|--0-3-0-0-3-0-3-0-0-3--|--0-3-0-0-3-0-6-6-6-5-5-5--|
   s s q s s s s q s s     s s e s s e e s s e s s 
|-------------------|-----------------------|
|4------------------|-----------------------|
|4-------------3/8~-|----------------8-8-7--|
|--3-3-3-3-3-3------|--3-3-3-3-3-3-0--------|
   s s q s s e e q     s s q s s e e s s e
|-------------------|
|4------------------|
|4------------------|
|--0-3-0-0-3-0-3-0--|
   s s q s s s s q.

Verse
[ Tab from: http://www.guitartabs.cc/tabs/m/mudvayne/not_falling_btab_ver_5.html ]
|---------------------------------|
|4----------------------12----12--|
|4-------------------12----12-----|
|-/12-12-12-12-12-12--------------|
   e  s  s  s  s  q. s  s  s  s
|------------------------------|
|4----------------------10-----|
|4-------------------10----10--|
|-/10-10-10-10-10-10-----------|
   e  s  s  s  s  q.  e  s  s
|---------------------|-------------|
|4----------------8---|5------------|
|4-------------8---8--|8------------|
|-/8-8-8-8-8-8--------|-/7-7-7-7-5\-|
   e s s s s q. e s s     e s s e q 
|---------------------|--------------------------|
|4--------------------|-------------------12/14--|
|4--------------------|---------------/12--------|
|--3-3-3-3-3/7-5-3-2--|--0-0-0-0-0/12\-----------|
   e s s e e e e e e     e s s s s q.  e  s  s 
|-------------------------------|
|4-----------------------10/12--|
|4-------------------/10--------|
|--10-10-10-10-10-10\-----------|
   e  s  s  s  s  q.  e  s  s
|---------------------|-------------|
|4--------------------|5------------|
|4--------------------|8------------|
|--8-8-8-8-8-8\0/8-0--|--7-7-7-7-5--|
   e s s s e q e e e     e s s e q
|---------------------|---------------------|
|4--------------------|---------------------|
|4--------------------|---------------------|
|--3-3-3-3-3-5-5-7-5/-|--2-2-2-2-2-5-5-3-3--|
   e s s e e e e e e     e s s e e e e e e
|-----------|
|2----------|
|4----------|
|--0-0/3-0--|
   e.s e e
|------------------------------|
|4-----------------------------|
|4-----------------------------|
|--12-12-12-12-12-14-14-15-12--|
   e  s  s  e  e  e  e  e  e
|------------------------------|
|4-----------------------------|
|4-----------------------------|
|--10-10-10-10-10-12-12-14-10--|
   e  s  s  e  e  e  e  e  e
|------------------------|-------------|
|4-----------------------|5------------|
|4-----------------------|8------------|
|--8-8-8-8-8-10-10-12-8--|--7-7-7-7-5/-|
   e s s e e e  e  e  e     e s s e q
|---------------------|---------------------|
|4--------------------|---------------------|
|4--------------------|---------------------|
|--3-3-3-3-3-5-5-7-5/-|--2-2-2-0-2-2-2-2-2/-|
   e s s e e e e e e     e.s e e e e s s e
|-----------|
|2----------|
|4----------|
|--0-0-3-0--|
   e.s e e
|------------------------------|
|4----------------12----14-----|
|4-------------12----12--------|
|--12-12-12-12-------------12--|
   e  s  s  e  e  e  e  e  e
|---------------------------------|
|4----------------10-------12-----|
|4-------------10----10-10--------|
|--10-10-10-10----------------10--|
   e  s  s  e  e  e  s  s  e  e
|-------------------------|-------------|
|4-----------8-----10-----|5------------|
|4---------8---8-8--------|8------------|
|--8-8-8-8------------10--|--7-7-7-7-5/-|
   e s s e e e s s e  e      e s s e q
|---------------------|-------------------------|
|4---------3-----5----|-------------------------|
|4-------3---3-3------|-------------------------|
|--3-3-3-----------3--|--2-2-2-2-0-2-5-0-5-3-5/-|
   e.s e e e s s e e     e s s e s s e s s e e
|----------19--|
|8-------------|
|4-------------|
|--0-0-0-0-----|
   e s s e w.+e

Chorus

|-----------------------|---------------------------|
|4----------------------|---------------------------|
|4----------------------|---------------------------|
|--0-3-0-0-3-0-3-0-0-3--|--0-3-0-0-3-0-6-6-6-5-5-5--|________
   s s q s s s s q s s     s s e s s e e s s e s s           |
|-----------------------|--------------10101010-9-9-9-9--|
|4----------------------|--------------------------------|
|4----------------------|--------------8-8-8-8--7-7-7-7--|
|--0-3-0-0-3-0-3-0-0-3--|--0-3-0-0-3-0-------------------|
   s s q s s s s q s s     s s e s s e s s s s  s s s s
|-----------------------|---------------------------|
|4----------------------|---------------------------|         2x
|4----------------------|---------------------------|        
|--0-3-0-0-3-0-3-0-0-3--|--0-3-0-0-3-0-6-6-6-5-5-5--|
   s s q s s s s q s s     s s e s s e e s s e s s 
|-------------------|-----------------------|
|4------------------|-----------------------|
|4-------------3/8~-|----------------8-8-7--|
|--3-3-3-3-3-3------|--3-3-3-3-3-3-0--------|_______________|
   s s q s s e e q     s s q s s e e s s e
|-------------------------|
|4-----------------x-x-x--|
|4-----------------x-x-x--|
|--0-3-0-0-3-0-3-0-x-x-x--|
   s s q s s s s e e s s

Bridge

|--5\4-4-4-4-4-4/16-16-16-16-16-16-16-16\-|
|4----------------------------------------|
|4-3\2-2-2-2-2-2/14-14-14-14-14-14-14-14\-|
|-----------------------------------------|___
   s s s s s s s s  s  s  s  s  s  s  e       |
|--5\4-4-4-4-4-4/101010\-|                    |
|4---------------9-9-9-\-|                    |
|4-3\2-2-2-2-2-2/8-8-8-\-|                     3x
|------------------------|                    |
   s s s s s s s e.e q                        |
|---------------------------------|2x_________|
|4--------------------------------|
|4--------------------------------|
|--3-2-0-2-0-0-3-2-0-2-0-0-3-2-0--|
   s s s s s s s s s s s s s s e
|---------------------------------|
|4--------------------------------|
|4--------------------------------|
|--3-2-0-2-0-0-3-2-0-2-0-0-3-2-0--|
   s s s s s s s s s s s s s s e
|--5\4-4-4-4-4-4/16-16-16-16-16-16-16-16\-|
|4----------------------------------------|
|4-3\2-2-2-2-2-2/14-14-14-14-14-14-14-14\-|
|-----------------------------------------|__
   s s s s s s s s  s  s  s  s  s  s  e      |
|--5\4-4-4-4-4-4/101010/-|                   |
|4---------------9-9-9-/-|                    2x
|4-3\2-2-2-2-2-2/8-8-8-/-|                   |
|------------------------|___________________|
   s s s s s s s e.e q 
|--17-17-17-17-17-17-17-17--|---------------|2x
|4-16-16-16-16-16-16-16-16--|---------------|
|4-15-15-15-15-15-15-15-15--|---------------|
|---------------------------|--0-0-6\0-0-6/-|
   e  e  e  e  e  e  e  e      e e q e e q
|--17-17-17-17-----|---------------|
|4-16-16-16-16-----|---------------|
|4-15-15-15-15-----|---------------|
|--------------14\-|--0-0-6\0-0-6/-|
   e  e  e  q  q.     e e q e e q
|--17-17-17-17-17-17-17-17--|---------------|2x
|4-16-16-16-16-16-16-16-16--|---------------|
|4-15-15-15-15-15-15-15-15--|---------------|
|---------------------------|--0-0-6\0-0-6/-|
   e  e  e  e  e  e  e  e      e e q e e q
|--17-17-17-17-17-17-17-17--|----17-17-17---17-17-17-17-17--|
|4-16-16-16-16-16-16-16-16--|6---16-16-16---16-16-16-16-16--|
|4-15-15-15-15-15-15-15-15--|4-r-15-15-15-r-15-15-15-15-15--|
|---------------------------|-------------------------------|
   e  e  e  e  e  e  e  e      e e  e  e  e e  e  e  e  e
|-----|
|3----|
|4-r--|
|-----|
   h.

Play Chorus 1x

Lyrics

Always, known in, all my time,
A little left of center now
Reflect as I realize,
That all I need is to find the middle pillar path to sit 
like the sun by a star in the sky and just be.
Sinners, casting stones at me

I... I stand, not crawling, not falling down
I... I bleed the demons that drag me down
I... I stand, (for nothing), not crawling, (the center), 
not falling down (of calms within the eye)
I... I'll bleed, (for no one), The demons, (but myself), 
that pull me down (for me and no one else)

Goodbye, sunshine, I've put it out again, sad
I'm over, personalities, conflicting, I don't need you, 
or anyone, but me, I'll just be, living my own life
I feel my glowing center grow, infecting
I feel alive
Shovel dirt over lime, plant it in myself to sit like a 
seed under covers of earth and just be
Sinners, pointing fingers at me

I... I stand, (for nothing), not crawling, 
(by myself), not falling down
I... I bleed, (for no one), the demons, 
(but myself), that drag me down
I... I stand, (for nothing), not crawling, (the center), 
not falling down (of calms within the eye)
I... I'll bleed, (for no one), the demons, (but myself), 
that pull me down (for me and no one else)

Come play kill
Refuse my body, refuse my shadow
Stond cold will
Refuse to lead this, refuse to follow
Bitter pills
Refuse to feed this, refuse to swallow
I'm fueled godless

Come play, come play
KILL
Just be, just be

I... I stand, (for nothing), not crawling, 
(by myself), not falling down
I... I bleed, (for no one), the demons, 
(but myself), that drag me down
I... I stand, (for nothing), not crawling, (the center), 
not falling down (of calms within the eye)
I... I'll bleed, (for no one), the demons, (but myself), 
that drag me down (for me and no one else)
Comments