Mudvayne - Not Falling Chords & Tabs

 

Not Falling Chords & Tabs

Mudvayne Chords & Tabs

Version: 4 Type: Bass Tab 0 ratings
1 star 2 stars 3 stars 4 stars 5 stars
comments

Not Falling Bass Tab

   
Song: "Not Falling"
Artist: MuDvAyNe


Tuning:F
       C
       G
       C
 Intro
                                   v = 4 beats
F[5\4-4-4-4-4-4-4-4-4-4-4-4-4-4-4-4I5\4-4-4-4-4-4-4-4-4-4-4-4-4-4-4-]
C[---------------------------------I--------------------------------]
G[3\2-2-2-2-2-2-2-2-2-2-2-2-2-2-2-2I3\2-2-2-2-2-2-2-2-2-2-2-2-2-2-2-] 
C[---------------------------------I--------------------------------]
  Chorus/Intro
p.1
F[---------------------------------I--------------------------------]
C[---------------------------------I--------------------------------]
G[---------------------------------I---------------1--11--0--00-----]
C[0h3-0-------0h3-0h3-0--------0h3-0h3-0---0h3-00-------------------]
    I       I  stand                               ^he plays this part HARD!!!
p.2                                                 so it kinda slaps
F[---------------------------------I--------------10101010-9-9-9-9--]
C[---------------------------------I--------------------------------]
G[---------------------------------I---------------8-8-8-8-7-7-7-7--]
C[0h3-0-------0h3-0h3-0--------0h3-0h3-0---0h3-00-------------------]
    Not crawling....
p.3
F[---------------------------------I--------------------------------]
C[---------------------------------I--------------------------------]
G[------------------/8~~~~~~\------I----------------------8-8-7-----]
C[3-3-3------3-3-3-----------------3-3-3-------3-3-3-3--------------]
  ...demons, that drag me down
  VERSE 1  (Both verses are pretty repetitive but there are very little
            things in them that make a huge difference so plz dont skip!!)
F[-------------------------------------------------------------------]
C[-------------------12-----------------------------------8/10--8----]
G[-------------10/12------------10-10/12--10------------8---------8--] cont.
C[12-1212-12--------------10-10--------------10-8--88-8-------------7]
      always               known in all my time             a little...
F[-------------------------------------------------------------]
C[-------------------------------------------------------------]
G[-------------------------------------------------------------]
C[-7-7-7-5-----3--33-3--3-5---7-3-2--22-2-2-3---2/7--0---0-/7-0]
...left of center now          reflect    as i realize  that   
F[-------------------------------------------------------------------]
C[---------------------------------------------------------8/10--8---]
G[-----12-12^----12--------------10-10/12-10-------------8---------8-] cont.
C[12----------------12-10-1010-----------------10-8--8-8-------------7
 all I                    need is to find     a middle pillar path...
F[------------------------------------------------------------------]
C[-------------------------------------------------------------(12)-]  harmonic!!!
G[---------------------------------------------------------------*--]
C[-7-7-7-5------3--33-3-3-5---7-3-2--22-2-2-3---2/7--0--------------]
 ...star in the sky n just be         sinners, casting stones at me
[ Tab from: http://www.guitartabs.cc/tabs/m/mudvayne/not_falling_btab_ver_4.html ]
        VERSE 2 !!!!!!
   for this part you could just play the 12's 10's & 8's with a vibrato
                                                      like 12~~~~~12  etc.
F[-----------------------------------------------------------------]
C[--------------------12--------------------10--------------------8]
G[---------------10/12------------------8/10------------------6/8--]
C[1212121212-------------1010101010--------------8-8-8-8-8---------]
          goodbye              sunshine               I've put it...
F[-----------------------------------------]
C[-----------------------------------------]
G[-----------------------------------------]
C[-7--77--5-----3-----3----5---2^--0-------]
  out again,    saaaaaaaaaaaaaaaddd!!!!!
F[--------------------------------------------------------------------]
C[-------------------12---------------------10------------------------]
G[--------------10/12-------------------8/10--------------------------]
C[0--121212--------------1010101010-------------8-8-8-8-8------0-8-0-7]
     I'm over               personalities          conflicting
F[------------------------------------------------------------]
C[------------------------------------------------------------]
G[------------------------------------------------------------]
C[7--77-5----3--33-3-3-5---7-3-2--22-2-2-3----2/7--0---0-/7-0-]
   I don't need  you       or  anyone   but     me
F[------------------------------------------------------------------]
C[------------------------------------------------------------------]
G[------------------------------------------------------------------]
C[12-121212-12-14---15-12-10-101010-10-12---14-10-8-888-8-10---12-8-7
      I'll just be       living my own life            I feel....
F[--------------------------------------------------------------]
C[--------------------------------------------------------------]
G[--------------------------------------------------------------]
C[-7--7-7-7-5----3--33-3-3-5---7-3-2--22-2-2-3----2/7-0---0-/7-0]
...my glowing center grow,      Infecting,  i feel alive...
F[------------------------------------------------------------------]
C[----------12--12/14-12----------10--10/12-10----------8---8/10----]
G[--------12--12----------------10--10----------------8---8---------]
C[12-1212----------------10-1010---------------8--8-8------------8-7]
  Shovel                 dirt over lime         plant it in myself...
F[---------------------------------------------------------------]
C[--------------------3---3/5-3----------------------------(12)--]  harmonic
G[------------------3---3------------------------------------*---]  again!!!
C[-7-77-5----3---3-3-------------2--22--2-3----2/7-0-------------]
  ...and just be,   sinners, pointing fingers at me   

Middle part (i changed this part and now it sounds really good. THX for
             everyones input :)
                              
F[5\4-4-4------------------5\4--4--4/10-10-10-10-10-10]
C[----------------------------------------------------]
G[3/2-2-2-/14-14-14-14-14\-3\2--2--2/-8--8--8--8--8--8]
C[----------------------------------------------------]
  come                    play
F[----------------------------------------------------------------]
C[----------------------------------------------------------------]
G[----------------------------------------------------------------]
C[3-2-0-2-0-0-3-2-0-2-0-0-3-2-0-2-3-2-0-2-0-0-3-2-0-2-0-0-3-2-0-2-]
  kill       (refuse my body,   refuse my shadow)

first part (before it gets really heavy)
F[17-17-17-17-17-17-17-17---7---------7h9-7--5------]  (the end part is played very
C[16-16-16-16-16-16-16-16------6-0-6-----------7h6-0]   quietly, but download Live
G[15-15-15-15-15-15-15-15---------------------------]  x2  on Craig Kilborn, or if 
C[--------------------------------------------------]   you've seen em live you'll 
  kiiiiillllllll (Just be!!!!!)                          know what I mean. You can 
F[17-17-17-17------------------------------------]       pretty much play anything
C[16-16-16-16------------------------------------]       here)
G[15-15-15-15------------------------------------]
C[-------------X--6\0-0----6\0-0---6\------------]
  
F[17-17-17-17-17-17-17-17------------------------]
C[16-16-16-16-16-16-16-16------------------------]
G[15-15-15-15-15-15-15-15------------------------]  x3
C[---------------------------0----6\0-0----6\----]
                           JUST    BEEEEEE!!!!
F[17-17-17-17-17-17-17-17------17-17-17----17-17-17-17-17-]
C[16-16-16-16-16-16-16-16------16-16-16----16-16-16-16-16-]
G[15-15-15-15-15-15-15-15------15-15-15----15-15-15-15-15-]
C[--------------------------------------------------------]
Comments