Mudvayne - Mercy Severity Chords & Tabs

 

Mercy Severity Chords & Tabs

Mudvayne Chords & Tabs

Version: 7 Type: Tab 0 ratings
1 star 2 stars 3 stars 4 stars 5 stars
comments

Mercy Severity Tab

   
Drop C tunning
(the solo may not be exact but I did the best I could do.
Alot of the people didn't have the solo on their tabs.)

h=hammer
/=slide
p=pull
*=harmonic

intro
--------------------------------------------------|x2
--------------------------------------------------|
--------------------------------------------------|
--------------------------------------------------|
0-0-0--0-0-0--0-0-0--0-0-0--0-0-0--0-0-0----------|
0-0-0--0-0-0--0-0-0--0-0-0--0-0-0--0-0-0----------|

------------------------------------------------------------------------|x2
------------------------------------------------------------------------|
------------------------------------------------------------------------|
------------------------------------------------------------------------|
3-2-0-0-7-3-2-0-7-3-2-0-0-5-3-2-0-5-3-2-0-0-3-3-2-0-3-3-2-0-0-2-3-2-0-2-|
3-2-0-0-7-3-2-0-7-3-2-0-0-5-3-2-0-5-3-2-0-0-3-3-2-0-3-3-2-0-0-2-3-2-0-2-|

----------------------------------------------------|
----------------------------------------------------|
7-7-7-7-7-7-5-5-5-5-5-5h7p5-4-4-4-4-4-4-3-3-3-3-3-3-|
----------------------------------------------------|
----------------------------------------------------|
----------------------------------------------------|
verse
----------------------------------------------------|
7-7-7-------7-7-7-----------5-5-5-------5-5-5-------|
7-7-7-7-7-7-5-5-5-5-5-5h7p5-4-4-4-4-4-4-3-3-3-3-3-3-|
----------------------------------------------------|
----------------------------------------------------|
----------------------------------------------------|
chorus
------------------------------------------------------------------------|
------------------------------------------------------------------------|
------------7-----------7-------7/5-------------------5-------------5/9-|
------------x-----------x-------x/x-------------------x-------------x/x-|
3-2-0-3-2-0-5-2-0-3-2-0-5-3-2-0-5/3-3-2-0-3-2-0-3-2-0-3-3-2-0-3-2-0-3/7-|
3-2-0-3-2-0---2-0-3-2-0---3-2-0-----3-2-0-3-2-0-3-2-0---3-2-0-3-2-0-----|
verse
----------------------------------------------------|
7-7-7-------7-7-7-----------5-5-5-------5-5-5-------|
7-7-7-7-7-7-5-5-5-5-5-5h7p5-4-4-4-4-4-4-3-3-3-3-3-3-|
----------------------------------------------------|
----------------------------------------------------|
----------------------------------------------------|

------------------------------------------------------------------------|x2
------------------------------------------------------------------------|
------------------------------------------------------------------------|
------------------------------------------------------------------------|
3-2-0-0-7-3-2-0-7-3-2-0-0-5-3-2-0-5-3-2-0-0-3-3-2-0-3-3-2-0-0-2-3-2-0-2-|
3-2-0-0-7-3-2-0-7-3-2-0-0-5-3-2-0-5-3-2-0-0-3-3-2-0-3-3-2-0-0-2-3-2-0-2-|
[ Tab from: http://www.guitartabs.cc/tabs/m/mudvayne/mercy_severity_tab_ver_7.html ]
chorus
------------------------------------------------------------------------|
------------------------------------------------------------------------|
------------7-----------7-------7/5-------------------5-------------5/9-|
------------x-----------x-------x/x-------------------x-------------x/x-|
3-2-0-3-2-0-5-2-0-3-2-0-5-3-2-0-5/3-3-2-0-3-2-0-3-2-0-3-3-2-0-3-2-0-3/7-|
3-2-0-3-2-0---2-0-3-2-0---3-2-0-----3-2-0-3-2-0-3-2-0---3-2-0-3-2-0-----|
solo
---------------------------------------------------|
---------------------------------------------------|
---------------------------------------------------|
--------------------0h5-----------5------5-------5-|
---------------------------------------------------|
3-2-0-2-0-3-2-0-2-0-----3-2-0-2-0---3-2-0--3-2-0---|

--------------------------------------------------------------|
--------------------------------------------------------------|
--------------------------------------------------------------|
----------0h7-----------0h7------0h7-------7-------7-------10-|
--------------------------------------------------------------|
6-5-0-5-0-----6-5-0-5-0-----6-5-0----6-5-0---6-5-0---6-5-0----|

------------------------------------------------------------------------|
------------------------------------------------------------------------|
--------------------55555555555---------------------7777777777/10101010-|
--------------------xxxxxxxxxxx---------------------xxxxxxxxxx/xxxxxxxx-|
--------------------33333333333---------------------5555555555/88888888-|
3-2-0-2-0-3-2-0-2-0-------------6-5-0-5-0-6-5-0-5-0---------------------|

------------------------------------------------------------------------|x2
------------------------------------------------------------------------|
------------------------------------------------------------------------|
------------------------------------------------------------------------|
3-2-0-0-7-3-2-0-7-3-2-0-0-5-3-2-0-5-3-2-0-0-3-3-2-0-3-3-2-0-0-2-3-2-0-2-|
3-2-0-0-7-3-2-0-7-3-2-0-0-5-3-2-0-5-3-2-0-0-3-3-2-0-3-3-2-0-0-2-3-2-0-2-|

----------------------------------------------------|
7-7-7-------7-7-7-----------5-5-5-------5-5-5-------|
7-7-7-7-7-7-5-5-5-5-5-5h7p5-4-4-4-4-4-4-3-3-3-3-3-3-|
----------------------------------------------------|
----------------------------------------------------|
----------------------------------------------------|
----------------------------------------------------|

------*5--------*5-----------*5--------*5----|
*7--------*7-------*5--*7--------*7-------*5-|
---*7--------*7-----------*7--------*7-------|
---------------------------------------------|
---------------------------------------------|
chorus
------------------------------------------------------------------------|
------------------------------------------------------------------------|
------------7-----------7-------7/5-------------------5-------------5/9-|
------------x-----------x-------x/x-------------------x-------------x/x-|
3-2-0-3-2-0-5-2-0-3-2-0-5-3-2-0-5/3-3-2-0-3-2-0-3-2-0-3-3-2-0-3-2-0-3/7-|
3-2-0-3-2-0---2-0-3-2-0---3-2-0-----3-2-0-3-2-0-3-2-0---3-2-0-3-2-0-----|
outro
--------------------------------------------------|x2
--------------------------------------------------|
--------------------------------------------------|
--------------------------------------------------|
0-0-0--0-0-0--0-0-0--0-0-0--0-0-0--0-0-0----------|
0-0-0--0-0-0--0-0-0--0-0-0--0-0-0--0-0-0----------|
Comments