Mudvayne - Mercy Severity Chords & Tabs

 

Mercy Severity Chords & Tabs

Mudvayne Chords & Tabs

Version: 4 Type: Tab 0 ratings
1 star 2 stars 3 stars 4 stars 5 stars
comments

Mercy Severity Tab

   
Mudvayne
Mercy, Severity
Tuning - Drop C (CGCFAD)
* = Palm Mute
I've put bars in to make it easier to read! :)

Intro :
C|-0-0-0-0-|-0-0-0-|
G|-0-0-0-0-|-0-0-0-|
C|-0-0-0-0-|-0-0-0-|

Pre-Verse :
C|-0-0-5-0-7-0-5-0-7-| |-0-0-3-0-5-0-3-0-5-|
G|-0-0-5-0-7-0-5-0-7-| |-0-0-3-0-5-0-3-0-5-|
C|-0-0-5-0-7-0-5-0-7-| |-0-0-3-0-5-0-3-0-5-|

C|-0-0-2-0-4-0-2-0-4-| |-0-0-2-0-3-0-2-0-3-|
G|-0-0-2-0-4-0-2-0-4-| |-0-0-2-0-3-0-2-0-3-|
C|-0-0-2-0-4-0-2-0-4-| |-0-0-2-0-3-0-2-0-3-|

Verse:
F|-7-7-7-7-7-7-5-5-5-5-5/7-7-4-4-4-4-4-4-3-3-3-3-3-3-|
C|---------------------------------------------------|
G|-5-5-5-5-5-5-3-3-3-3-3/5-5-2-2-2-2-2-2-1-1-1-1-1-1-|

Chorus:
F|-------------7---------------7-------7-|
C|-3-2-0-3-2-0-7-0-0-0-0-3-2-0-7-3-2-0-7-|
G|-3-2-0-3-2-0-5-0-0-0-0-3-2-0-5-3-2-0-5-|
C|-3-2-0-3-2-0---0-0-0-0-3-2-0---3-2-0---|
                 *******
[ Tab from: http://www.guitartabs.cc/tabs/m/mudvayne/mercy_severity_tab_ver_4.html ]
F|-5-5-5-5-------------------5-5-5-5-----------------9-|
C|-5-5-5-5-0-2-3-2-0-2-0-2-0-5-5-5-5-0-2-3-2-0-2-3-2-9-|
G|-3-3-3-3-0-2-3-2-0-2-0-2-0-3-3-3-3-0-2-3-2-0-2-3-2-7-|
C|---------0-2-3-2-0-2-0-2-0---------0-2-3-2-0-2-3-2---|
           *****************         ***************

Solo Type Thang: (Not too sure about this)
F|---------------------------|---------------------------|
C|---------0---------0-----0-|-----3---5-----3---5-----3-|
G|---------------------------|---------------------------|
C|-0-0-3-0---0-0-3-0---0-0---|-3-3---3---3-3---3---3-3---|

F|---------------------------|---------------------------8/10-|
C|-----5---7-----5---7-----7-|-----7---10-----7---12----------|
G|---------------------------|--------------------------------|
C|-5-5---5---5-5---5---5-5---|-7-7---7----7-7---7----7-7------|

Interlude: "Portal Sits Deep Within the Eye..."
F|---------5-5-5-5---------------------------------5-5-5-5-7-7-7/9-9-|
C|-0-0-0-0-5-5-5-5-3-3-3-3-3-3-3-3-3-3-3-3-3-3-3-3-5-5-5-5-7-7-7/9-9-|
G|-0-0-0-0-3-3-3-3-3-3-3-3-3-3-3-3-3-3-3-3-3-3-3-3-3-3-3-3-5-5-5/7-7-|
C|-0-0-0-0---------3-3-3-3-3-3-3-3-3-3-3-3-3-3-3-3-------------------|
                   *******************************

Interlude 2: "Won't you take me away..."
F|-7nh-----|
C|-----7nh-|
G|---------|
C|---------|

And that's it!! Not a hard song, just figure out where it all goes.
Comments