Mudvayne - Know Forever Chords & Tabs

 

Know Forever Chords & Tabs

Mudvayne Chords & Tabs

Version: 2 Type: Tab 0 ratings
1 star 2 stars 3 stars 4 stars 5 stars
comments

Know Forever Tab

   
Song: "K(now) F(orever)"
Artist: Mudvayne
Album: L.D. 50
Transcribed By: thomas hassler

Tuning: Drop D, Down 1 1/2 Steps (B,F#,B,E,G#,C#)
^ - bend 1/2 step up
. - palm mute

INTRO:
|--------------------------------------------------|
|--------------------------------------------------|
|--------------------------------------------------|
|-----4-------4-----4-------4-----4-------4-----4--|
|-333323--333323333323--333323333323--333323333323-|
|-3333-3--3333-33333-3--3333-33333-3--3333-33333-3-|
  ....    .... .....    .... .....    .... ..... 

INTRO 2:
|----------------------10------------------------------------------|
|-------------333--------8-10-------------333----------------------|
|-------------111------------7------------111----------------------|
|-----4-----4--------4------------4-----4--------4-5h6-5h6-5h6-5h6-|
|-333323333323---333323-------333323333323---333323----------------|
|-3333-33333-3---3333-3-------3333-33333-3---3333-3----------------|
PM.... .....     ....         .... .....     ....

CHORUS:
|-----------------------------------------------------|
|-----------------------------------------------------|
|-----------------------------------------------------|
|-5-------------------------5--------------------4444-|
|-3-5-3-5-6-6-6-5-00-0-0-XX-3-5-3-5-6-6-6-5-00-0-2222-|
|---5-3-5-6-6-6-5-00-0-0-XX---5-3-5-6-6-6-5-00-0------|

|----------------------------------------------------|
|----------------------------------------------------|
|----------------------------------------------------|
|-5------------------------5--------------------4444-|
|-3-5-3-5-6-6-6-5-00-0-0---3-5-3-5-6-6-6-5-00-0-2222-|
|---5-3-5-6-6-6-5-00-0-0-----5-3-5-6-6-6-5-00-0------|

FILL:
|--------------|
|--------------|
|--------------|
|-5------------|
|-3-0-0--0-660-|
|---0-0--0-660-|

VERSE: (* - play as single note after first time through)
|-------------------------------------------------------------|
|-------------------------------------------------------------|
|-------------------------------------------------------10-10-|
|-------------------------------------------------------10-10-|
|-10/12--------------------------------------------------8--8-|
|-10/12-12-12-12-12-13-13-13-10-10-10-*1212*-9-9-9-9-9-9------|
PM      .. .. .. .. .. .. .. .. .. ..  ....  . . . . . .

|-----------------------|
|-----------------------|
|---------10-10---------|
|---------10-10---------|
|----------8--8---------|
|-9-9-9-9-------9-9-9-9-|
PM. . . .       . . . .

VERSE FILL:
|-----------------------|
|-----------------------|
|-----------------------|
|---------9---------9---|
|-----------------------|
|-9-9-9-9---9-9-9-9---9-|
PM. . . .   . . . .   .

VERSE FILL 2:
|-----------------------------------------------------------------|
|-----------------------------------------------------------------|
|-----------------------------------------------------------------|
|-----------------------------------------------------------------|
|-10/12-12-12-12-12-13-13-13-10-10-10-12-9-9-9-9-9-9-9-9--9-9-9-9-|
|-10/12-12-12-12-12-13-13-13-10-10-10-12-9-9-9-9-9-9-9-9--9-9-9-9-|

VERSE FILL 3:
|---------|
|------12-|
|---10----|
|-9-------|
|---------|
|---------|

|----------------------------------------------------------------------|
|----------------------------------------------------------------------|
|------------------------------------------------10101010-10101010-1010|
|------------------------------------------------10101010-10101010-1010|
|-10/12-------------------------------------------8-8-8-8--8-8-8-8--8-8|
|-10/12-12-12-12-12-13-13-13-10-10-10-12-9-9-9-9-----------------------|
PM      .. .. .. .. .. .. .. .. .. .. .. . . . .

INTERLUDE:
|-----------------------------------------------------------------|
|-----------------------------------------------------------------|
|-----------------------------------------------------------------|
|-4-4-4-4-4-4-5-5-5-5-5-5-5-5-5-5-7-7-7-7-7-7-5-5-5-5-5-5-5-5-5-5-|
|-2-2-2-2-2-2-3-3-3-3-3-3-3-3-3-3-5-5-5-5-5-5-3-3-3-3-3-3-3-3-3-3-|
|-----------------------------------------------------------------|
[ Tab from: http://www.guitartabs.cc/tabs/m/mudvayne/know_forever_tab_ver_2.html ]
INTERLUDE 2:
|-----------------------------------------------------------------|
|-----------------------------------------------------------------|
|-----------------------------------------------------------------|
|-4-4-4-4-7\4-4-4-4-5-5-5-5-5-5-5-7-7-7-7-8\7-7-7-7-5-5-5-5-5-5-5-|
|-2-2-2-2-5\2-2-2-2-3-3-3-3-3-3-3-5-5-5-5-6\5-5-5-5-3-3-3-3-3-3-3-|
|-----------------------------------------------------------------|

CHORUS 2:
|-----------------------------------------------------|
|-----------------------------------------------------|
|-----------------------------------------------------|
|-5-------------------------5-------------------------|
|-3-5-3-5-6-6-6-5-00-0-0-XX-3-5-3-5-6-6-6-5-00-0-2335-|
|---5-3-5-6-6-6-5-00-0-0-XX---5-3-5-6-6-6-5-00-0------|

|----------------------------------------------------|
|----------------------------------------------------|
|----------------------------------------------------|
|-5------------------------5-------------------------|
|-3-5-3-5-6-6-6-5-00-0-0---3-5-3-5-6-6-6-5-00-0-2335-|
|---5-3-5-6-6-6-5-00-0-0-----5-3-5-6-6-6-5-00-0------|

CHORUS FILL:
|----------------------------|
|----------------------------|
|----------------------------|
|-5----------------------444-|
|-3-5-3-5-6-6-6-5-00-0-0-222-|
|---5-3-5-6-6-6-5-00-0-0-----|

INTERLUDE 3:
|-----------------------------|
|-----------------------------|
|-----------------------------|
|-----------------------------|
|-----------------------------|
|-6-0-0-0--0-0--0-0--0-0--0-0-|

INTERLUDE 4:
|-----------------------------|
|-----------------------------|
|-----------------------------|
|-6-0-0-0--0-0--0-0--0-0--0-0-|
|-6-0-0-0--0-0--0-0--0-0--0-0-|
|-6-0-0-0--0-0--0-0--0-0--0-0-|

FILL 2:
|--------|
|---12---|
|---11---|
|--------|
|--------|
|-9----9-|

INTERLUDE 5:
|--------8--------------------------------------|
|---12---7--------------------------------------|
|---11------------------------------------------|
|----------1----3----------3----------3---------|
|----------1--1-1-1-0-1--1-1-1-0-1--1-1-1-0-1-0-|
|-9----3---1--1---1-0-1--1---1-0-1--1---1-0-1-0-|
PM            .   . .    .   . .    .   . . . .

INTERLUDE 6:
|----------------------|
|---12-12---12-12---12-|
|---11-11---11-11---11-|
|----------------------|
|----------------------|
|-9-------9-------9----|

FILL 3:
|-----------|
|---12-1212-|
|---11-1111-|
|-----------|
|-----------|
|-9---------|

VERSE 2:
|----------------------------------------------------------------------|
|----------------------------------------------------------------------|
|----------------------------------------------------------------------|
|----------------------------------------------------------------------|
|10/12-----------------------------------------------------------------|
|10/12-12-12-12-12-13-13-13-10-10-10-12-9-9-9-9-9-9-9-9-9-9-9-9-9-9-9-9|
PM     .. .. .. .. .. .. .. .. .. .. .. . . . . . . . . . . . . . . . .

|---------|
|---------|
|---------|
|---------|
|---------|
|-9-9-9-9-|
PM. . . .

|----------------------------------------------------------------------|
|----------------------------------------------------------------------|
|----------------------------------------------------------------------|
|---------------------------------------------------9---------------9--|
|10/12-----------------------------------------------------------------|
|10/12-12-12-12-12-13-13-13-10-10-10-12-9-9-9-9-9-9---9-9-9-9-9-9-9---9|
PM     .. .. .. .. .. .. .. .. .. .. .. . . . . . .   . . . . . . .   .

|---------|
|---------|
|---------|
|---------|
|---------|
|-9-9-9-9-|
PM. . . .

VERSE 2B:
|--------------------------------------------------------|
|--------------------------------------------------------|
|--------------------------------------------------------|
|--------------------------------------------------------|
|-10/12-12-12-12-12-13-13-13-10-10-10-12-9-9-9-9-0-0-0-0-|
|-10/12-12-12-12-12-13-13-13-10-10-10-12-9-9-9-9-0-0-0-0-|

VERSE 2B FILLS:
|-----|-------|---------------|
|-----|-------|---------------|
|-12^-|-------|---------------|
|--9^-|-0-0-0-|-0-0-0--0-0--0-|
|-----|-0-0-0-|-0-0-0--0-0--0-|
|-----|-0-0-0-|-0-0-0--0-0--0-|

OUTRO:
|-----------------------------------------------------------------|
|-----------------------------------------------------------------|
|-----------------------------------------------------------------|
|-----------------------------4-----------------------------------|
|-3-2-1-3-2-1-3-1-331-1-3-2-1-2-3-2-1-3-2-1-3-1-331-1-331-1-331-1-|
|-3-2-1-3-2-1-3-1-331-1-3-2-1---3-2-1-3-2-1-3-1-331-1-331-1-331-1-|
PM. . . . . . . . ... . . . .   . . . . . . . . ... . ... . ... .
Comments