Mudvayne - Internal Primates Forever Chords & Tabs

 

Internal Primates Forever Chords & Tabs

Mudvayne Chords & Tabs

Version: 1 Type: Tab 0 ratings
1 star 2 stars 3 stars 4 stars 5 stars
comments

Internal Primates Forever Tab

#-----------------------------------------------------------------------------#
#-- File created with Instab - http://www.pconline.com/~smcarey/instab.html --#
#-----------------------------------------------------------------------------#

Author/Artist: Mudvanye
Title: Internal Primates Forever
Album: L.D 50
Transcribed by: www.pharmaecopiaonline.tk
Email: www.pharmaecopiaonline.tk

www.pharmaecopiaonline.tk

------------------------|------------------------|-------------------|--------
------------------------|------------------------|-------------------|--------
------------------------|------------------------|-------------------|--------
------------------------|------------------------|-------------------|--------
------------------------|-4-1-0--1-0-1-0--3-2-2-3|-------------------|--------
-4-1-0--1-0-1-0--0-3-2-3|-4-1-0--1-0-1-0--0-3-2-3|-0-0-0--0-0--0-0--0|--------
                                                                              

---------------------|-----------------------|--------------------------------
---------------------|-----------------------|--------------------------------
---7-------7--------7|---7-------7--------7\6|-7-7-7-------------------5-5-6--
-6---6-0-6----0-6-0-6|-6---6-0-6----0-6-0-6\5|-------3-3-3-5-5-5-6-6-6--------
---------------------|-----------------------|--------------------------------
---------------------|-----------------------|--------------------------------
                                                                              
[ Tab from: http://www.guitartabs.cc/tabs/m/mudvayne/internal_primates_forever_tab.html ]
--|-----------------------|----------------------------|----------------------
--|-----------------------|----------------------------|----------------------
-6|-----------------------|----------------------------|----------------------
--|--7--7------------5-5-6|----------------------------|----------------------
--|--5--5-3-5-6-6-6--3-3-4|----------------------------|-6-3-0-5-0-3-6-3-0-3--
--|-------3-5-6-6-6-------|--6-3-0-3-5-0--3--6-3-0-3-5-|-6-3-0-5-0-3-6-3-0-3--
                                                                              

--|--------|----------------------------------------------------------------|-
--|--------|----------------------------------------------------------------|-
--|-*12-*13|----------------------------------------------------------------|-
--|--------|----------------------------------------------------------------|-
-5|-*10-*11|------------------------------------------------------------------
-5|--------|-0-3-5-6-3-0-3-5-6-3-0-3-5-6-3-0-3-5-6-3-0-3-5-6-3-0-3-5-6-3-0-3--
                                                                              

-------------------|------------------------------|---------------------------
-------------------|-----------------------------6|---------------------------
-------------------|-----------------------------4|---------------------------
-------------------|-----------------------------3|---------------------------
-0--0-3--0-3--1-1-3|-4-3-0-7-6-7--3--5-3-0-7-6-7--|---------------------------
-0--0-3--0-3--1-1-3|-4-3-0-7-6-7--3--5-3-0-7-6-7--|---------------------------
                                                                              

Comments