Mudvayne - Internal Primates Forever Chords & Tabs

 

Internal Primates Forever Chords & Tabs

Mudvayne Chords & Tabs

Version: 2 Type: Bass Tab 0 ratings
1 star 2 stars 3 stars 4 stars 5 stars
comments

Internal Primates Forever Bass Tab

Artist:Mudvayne
Song:Internal primates forever
Album:L.D. 50
Tabbed by:Rani Halwani
Tuning:Well Ryknow(ryan) off mudvayne has it on a (b,f#,b,e,g#,c#) and its best u have 
tuned like that or the song will sound wrong!

This song is one of my fav's.and i listen to it mostly everyday!! and i got some tabs 
off some site,and they were shit so i took the liberty to tabbing them out my self!!!! 
and doing it right......hope so! anyway i took some of the parts that were right off 
the other guy which is the chorus.thats it! and the rest was left for my speciel ear!
here goes.im gonna add all the details to this song...lyrics too! 

S:Slapped
P:pull off
X:dead notes
R:rest
>:slide up
<:slide down        <------looks like a smily!!

Intro1:

[----------------------------]
[----------------------------]
[----------------------------]
[----------------------------]
[--0--0-0---0-0-0-0----------]
    S  S S   S S S S


Intro2:
This song is quit hard to figure out what he is playing at the time,so try to keep up
[----------------------------]
[----------------------------]
[----------------------------]
[----------------------------]
[-4-0-1-1-0-1--0-0-3-2-3-----]
  ^ This part starts when Kud starts saying "JUMP" u play it once everytime kud says "JUMP"
but the last time he says it play it 2 once normaly and the other time slowly! oh just listen to
the song so u can get the timeing and shit!

Verse:                                                       X2
[-----------------------------------------------------------]
[-----------------------------------------------------------]
[---------3>5<3---------3>5<3---------3>5<3---------3>5<3---]
[---------1>3<1---------1>3<1---------1>3<1---------1>3<1---]
[----0X0X0---------0X0X0---------0X0X0---------0X0X0--------]

Chorus:
This isn't the chorus exactly....its the part where Kud starts screaming "Their coming 
they're coming their coming they're coming to take me away"
                              X3
[----------------------------]
[----------------------------]
[----------------------------]
[----------------------------]
[-4-0-1-1-0-1--0-0-3-2-3-----]


Verse:
Same as verse one!                                                       X2
[------------------------------------------------------------]
[------------------------------------------------------------]
[----------3>5<3---------3>5<3---------3>5<3---------3>5<3---]
[----------1>3<1---------1>3<1---------1>3<1---------1>3<1---]
[----0X0X0---------0X0X0---------0X0X0---------0X0X0---------]
      S S S         S S S         S S S         S S S       
Orignal Chorus:
This is the part Kud Sings This "There's no use to fight this wrenching....." 
He sings the part Twice witha part in the middle with him saying" Do you want more  
give it to me" Then he sings the intro again so...
u play this part 4 times the first time he sings and 4 times the second time!!
                              X8
[----------------------------]
[----------------------------]
[----------------------------]
[----------------------------]
[-4-0-1-1-0-1--0-0-3-2-3-----]

After The chorus when kud screams:
[--------------------------------]
[--------------------------------]
[--------------------------------]
[-5-------3-4-5--5-------3-4-5---]
[---3-5-6----------3-5-6---------]      
  SS S S S S S

Chorus-2:
Kud sings this at this chorus:"Every time I try to run away I fall on my face they drag 
me back 

Every time I try to run away I fall on my face"
[-----------------------]
[-----------------------]
[-----------------------]  
[-555-----------33-44-55]
[----333-555-666--------]

This is when Kud sings:"Help! They won't leave me alone"
[--------------------]
[--------------------]
[-------------------6]
[-5------------------]
[--3-3-5-333-5-33-5--]
 
Chorus-3:
Kud sings this here:"If I would have known back then what I know now I 'd take it back
If I would have known back then what I know now I 'd take it back,I'd take it back 
I'd take it all fuckin' back"
[-----------------------]
[-----------------------]
[-----------------------]  
[-555-----------33-44-55]
[----333-555-666--------]
[ Tab from: http://www.guitartabs.cc/tabs/m/mudvayne/internal_primates_forever_btab_ver_2.html ]
Bridge:
This part is weird but sounds cool This is when Kud sings:"STAY AWAY"
[-------------------------------------------------------------
[-------------------------------------------------------------
[-------------------------------------------------------------
[-------------------------------------------------------------
[-4-0-1-1-0-1--0-0-3-2-3---------4-0-1-1-0-1--0-0-3-2-3-------
                      
--------------------------------------------------------------------------------------
------------------------------4-0-1-1-0-1--0-0-3-2-3----------------------------------
--------------------------------------------------------------------------------------
--------------------------------------------------------------------------------------
-4-0-1-1-0-1--0-0-3-2-3------------------------------------4-0-1-1-0-1--0-0-3-2-3-----
                              ^^^^^^^^This is the funky part Before Kud starts singing
                                       "Stay Away,Stay Away"!
----------------------------------------------------------------------------------]
-------------------------------4-0-1-1-0-1--0-0-3-2-3-----------------------------]
----------------------------------------------------------------------------------]
----------------------------------------------------------------------------------]
--4-0-1-1-0-1--0-0-3-2-3---------------------------------4-0-1-1-0-1--0-0-3-2-3---]

This is when Kud sings:"Hold me I'm shaking violently,Pull me out of my covering,
Mold me into a new man, 
Lull me into a deep sleep"
[----------------------------]
[------------------------(3)-]
[----------------------------]
[----------------------------]
[-4-0-1-1-0-1--0-0-3-2-3-----]
play it 4 times but the second time u play it...play the 3!

Brigde-2:
This is when Kud starts saying:"STAY AWAY" again
[-------------------------------------------------------------------------------------
[-------4-0-1-1-0-1--0-0-3-2-3--------------------------------------------------------
[-------------------------------------------------------------------------------------
[-------------------------------------------------------------------------------------
[-------------------------------4-0-1-1-0-1--0-0-3-2-3----4-0-1-1-0-1--0-0-3-2-3------

---------------------------------]
-----4-0-1-1-0-1--0-0-3-2-3>>>---]
---------------------------------]
---------------------------------]
---------------------------------]

This is Bridge-2 Gin but with out The 3 at the end!!!
                              X4
[---------------------------------------]
[---------------------------------------]
[---------------------------------------]
[---------------------------------------]
[-4-0-1-1-0-1--0-0-3-2-3--(0-0-3-2-3)---]
But at the end of ths last time u play the Bridge-2 u keeps going on playing 
this(0-0-3-2-3)< play as
many times u can here him play it!

Chorus:
                              X4
[----------------------------]
[----------------------------]
[----------------------------]
[----------------------------]
[-4-0-1-1-0-1--0-0-3-2-3-----]

Then he keeps playing the Chorus over and over again while he is saying:"Even if you 
want you can't stop"


[-----------------------]
[-----------------------]
[----------------------6]
[-5---------------------]
[--5-5-6-5-5-5-6-5-5-6--]
 (p)
This is when Kud is saying"INTERNAL PRIMATES FOREVER"
Okey the pull off is only for the first 2 times

Before the last time he says Internal primate forever there is a wierd sound
Wierd sound:
[--5-5-6-5-5-5-6-5-5-6------------------------------]
[---------------------------------------------------]
[--------------------------------------------------6]THE END!
[-----------------------------5---------------------]
[------------------------------5-5-6-5-5-5-6-5-5-6--]
oh i think the outro is the intro u know his last scream and it fades when the bass 
plays its final notes
thats the intro!!

okey i bet there most be 100 of mistakes in there and i dont mind if u tell me that its
crap or not cuz it only took me an hour or 2 to tab it out!!!!

Lyric's:
Intro
Jump,Jump,Jump,Jump,Jump,Jump

Verse
Cop provisions feed my addictions mistakes I made then 
I opened up the holes and they crawled in,
Now when it's time for the feed they won't let me forget,
They ride upon my back and they'll fuck me with their need,
My invisible enemies all my monkeys 

Weird Chorus
Their coming they're coming their coming they're coming to take me away.

Verse
Disgusted with my position so submissive I am the only way we get away is give in sharpen 
up the razors stab the needles into pipes to kill cravings so sick of this in me can't 
stand the want to need can't get free always got a grip on me

Chorus
There's no use to fight this wrenching tourniquet of deprivation obedience subservience 
leads to substance

Do you want more give it to me

Leave my motivation to chemical dependency no room for patience
Don't want it need it come on right now 

(chorus voice 2)
Everything I've become now is everything I didn't want to be

Every time I try to run away I fall on my face they drag me back
Every time I try to run away I fall on my face 

Help! They won't leave me alone

If I would have known back then what I know now I 'd take it back
If I would have known back then what I know now I 'd take it back,
I'd take it back I'd take it all fuckin' back 

Stay away stay away 
Hold me I'm shaking violently 
Pull me out of my covering 
Mold me into a new man 
Lull me into a deep sleep

There's no use to fight this wrenching tourniquet of deprivation obedience subservience 
leads to substance 

Even if you want you can't stop

Internal primates forever

By me:Rani!.....hating_everything_@hotmail.com
Comments