Mudvayne - Internal Primates Forever Chords & Tabs

 

Internal Primates Forever Chords & Tabs

Mudvayne Chords & Tabs

Version: 1 Type: Bass Tab 0 ratings
1 star 2 stars 3 stars 4 stars 5 stars
comments

Internal Primates Forever Bass Tab

   
Artist:Mudvayne
Song:Internal primates forever
Album:L.D. 50
Tabbed by:Rani Halwani
Tuning:(b,f#,b,e,g#,c#) 


 S:Slapped
P:pull off
X:dead notes
R:rest
>:slide up
5555333355553333>>---]
---------------------------------]
---------------------------------]
---------------------------------]

This is Bridge-2 Gin but with out The 3 at the end!!!
                              X4
[---------------------------------------]
[---------------------------------------]
[---------------------------------------]
[---------------------------------------]
[-4-0-1-1-0-1--0-0-3-2-3--(0-0-3-2-3)---]
But at the end of ths last time u play the Bridge-2 u keeps going on playing 
this(0-0-3-2-3)< play as
many times u can here him play it!

Chorus:
                              X4
[----------------------------]
[----------------------------]
[----------------------------]
[----------------------------]
[-4-0-1-1-0-1--0-0-3-2-3-----]

Then he keeps playing the Chorus over and over again while he is saying:"Even if you 
want you can't stop"


[-----------------------]
[-----------------------]
[----------------------6]
[-5---------------------]
[--5-5-6-5-5-5-6-5-5-6--]
 (p)
This is when Kud is saying"INTERNAL PRIMATES FOREVER"
Okey the pull off is only for the first 2 times
[ Tab from: http://www.guitartabs.cc/tabs/m/mudvayne/internal_primates_forever_btab.html ]
Before the last time he says Internal primate forever there is a wierd sound
Wierd sound:
[--5-5-6-5-5-5-6-5-5-6------------------------------]
[---------------------------------------------------]
[--------------------------------------------------6]THE END!
[-----------------------------5---------------------]
[------------------------------5-5-6-5-5-5-6-5-5-6--]
oh i think the outro is the intro u know his last scream and it fades when the bass 
plays its final notes
thats the intro!!

okey i bet there most be 100 of mistakes in there and i dont mind if u tell me that its
crap or not cuz it only took me an hour or 2 to tab it out!!!!

Lyric's:
Intro
Jump,Jump,Jump,Jump,Jump,Jump

Verse
Cop provisions feed my addictions mistakes I made then 
I opened up the holes and they crawled in,
Now when it's time for the feed they won't let me forget,
They ride upon my back and they'll fuck me with their need,
My invisible enemies all my monkeys 

Weird Chorus
Their coming they're coming their coming they're coming to take me away.

Verse
Disgusted with my position so submissive I am the only way we get away is give in sharpen 
up the razors stab the needles into pipes to kill cravings so sick of this in me can't 
stand the want to need can't get free always got a grip on me

Chorus
There's no use to fight this wrenching tourniquet of deprivation obedience subservience 
leads to substance

Do you want more give it to me

Leave my motivation to chemical dependency no room for patience
Don't want it need it come on right now 

(chorus voice 2)
Everything I've become now is everything I didn't want to be

Every time I try to run away I fall on my face they drag me back
Every time I try to run away I fall on my face 

Help! They won't leave me alone

If I would have known back then what I know now I 'd take it back
If I would have known back then what I know now I 'd take it back,
I'd take it back I'd take it all fuckin' back 

Stay away stay away 
Hold me I'm shaking violently 
Pull me out of my covering 
Mold me into a new man 
Lull me into a deep sleep

There's no use to fight this wrenching tourniquet of deprivation obedience subservience 
leads to substance 

Even if you want you can't stop

Internal primates forever
Comments