Mudvayne - Happy Chords & Tabs

 

Happy Chords & Tabs

Mudvayne Chords & Tabs

Version: 4 Type: Tab 0 ratings
1 star 2 stars 3 stars 4 stars 5 stars
comments

Happy Tab

Happy?
Mudvayne
Tabbed: RocknSk8a---HardRockr@hotmail.com
tuning:dropped D
/=slide up
\=slide down

intro/chorus
|------------------------------------------|
|-----6x12-------6x12-----6x12-------------|
|------------------------------------------|
|-3-3------5/6-6------8-8------6-6-6-6-6\2-| [ Tab from: http://www.guitartabs.cc/tabs/m/mudvayne/happy_tab_ver_4.html ]
fill 1
|-----------------------------|
|-----------------------------|
|------7br-------------7-8-10-|
|-0h1--x--------0h1-0--x-x-x--|
|-0h1--5br--x3--0h1-0--5-6-8--|
|-0h1-----------0h1-0---------|


fill 2
|---------------|
|---------------|this part may be wrong 
|-8---10--5---3-|but its close enough,
|-5---8---3---1-|strum each chord more 
|-5---8---3---1-|than once here


fill 3
|------------------------------------|
|------------------------------------|
|------------------------------------|
|-8-----10----10-----1111--1--111/3--|
|-5-x4--8-x4--10-x4--1111--1--111/3--|
|-5-----8-----10-----1111--1--111/3--|

outro
|----------------------------------------------|
|----------------------------------------------|
|----------------------------------------------|
|-5550505050-8880808080-3330303030-1111111/3---|
|-5550505050-8880808080-3330303030-1111111/3---|
|-5550505050-8880808080-3330303030-1111111/3---|

|---------------------------------------------------------|
|---------------------------------------------------------|
|---------------------------------------------------------|
|-5550505050-8880808080-3330303030-1111-10101010-8\3-5555-|
|-5550505050-8880808080-3330303030-1111-10101010-8\3-5555-|
|-5550505050-8880808080-3330303030-1111-10101010-8\3-5555-|
                                        ^^^^^^^^
                                          tens

intro/chorus x2
verse 1 x2
verse 2 x2
intro/chorus x2
verse 2 x3
intro/chorus x2
fill 1
fill 2
fill 3
intro/chorus x3
outro
Comments