Mudvayne - Happy Chords & Tabs

 

Happy Chords & Tabs

Mudvayne Chords & Tabs

Version: 3 Type: Tab 0 ratings
1 star 2 stars 3 stars 4 stars 5 stars
comments

Happy Tab

BAnd- Mudvayne
Song- Happy?

Tuning: Drop C

Opening Riff:

Distorted   REPEAT 2 X

D|-------------------------------------------------------------------------------------------|
A|-------------------------------------------------------------------------------------------|
F|-XXXX--000000000000--XXX---000000000000--XXX---000000000000--XXXX--X-----1-0-1-3-----------|
C|-5555--555555555555--888---555555555555--555---555555555555--1111--1-----1-0-1-3-----------|
G|-5555----------------888-----------------333-----------------1111--1-----1-0-1-3-----------|
C|-5555----------------888-----------------333-----------------1111--1-----1-0-1-3-----------|

D|-------------------------------------------------------------------------------------------|
A|-------------------------------------------------------------------------------------------|
F|-XXXX--000000000000--XXX---000000000000--XXX---000000000000--XXXX--X-----1-0-1-3-----------|
C|-5555--555555555555--888---555555555555--555---555555555555--1111--1-----1-0-1-3-----------|
G|-5555----------------888-----------------333-----------------1111--1-----1-0-1-3-----------|
C|-5555----------------888-----------------333-----------------1111--1-----1-0-1-3-----------|

VERSE RIFF 1:
Clean REPEAT 2X
D|-------------------------------------------------------------------------------------------|
A|-------------------------------------------------------------------------------------------|
F|-----5-------5-----------10--------10------------5-------5-----------3----------3----------|
C|-------8-------8------------10--------10-----------5-------5-----------3----------3--------|
G|---5-----5-------5-----8-------8---------8-----3-----3-------3-----1-----1----------1------|
C|-5---------5---------8-----------8-----------3---------3---------1---------1---------------|

D|-------------------------------------------------------------------------------------------|
A|-------------------------------------------------------------------------------------------|
F|-----5-------5-----------10--------10------------5-------5-----------3----------3----------|
C|-------8-------8------------10--------10-----------5-------5-----------3----------3--------|
G|---5-----5-------5-----8-------8---------8-----3-----3-------3-----1-----1----------1------|
C|-5---------5---------8-----------8-----------3---------3---------1---------1---------------|

PALM-MUTE..............................................................
D|-------------------------------------------------------------------------------------------|
A|-------------------------------------------------------------------------------------------|
F|----888---888---88---888---888--88---555---555--55---555---555-----------------------------|
C|---------------------------------------------------------------223333----------------------|
G|---------------------------------------------------------------223333----------------------|
C|-555---555---55---888---888---88--333---333---33--222---222----223333----------------------|

PALM-MUTE...........................................
D|--------------------------------------------------------------------------------------------|
A|--------------------------------------------------------------------------------------------|
F|----888---888---88---888---888--88---555---555--55------------------------------------------|
C|---------------------------------------------------2222---2222---202323333------------------|
G|---------------------------------------------------2222---2222---202323333------------------|
C|-555---555---55---888---888---88--333---333---33---2222---2222---202323333------------------|
BACK-TO-CHORUS


VERSE RIFF 2:

PALM-MUTE..............................................................
D|-------------------------------------------------------------------------------------------|
A|-------------------------------------------------------------------------------------------|
F|----888---888---88---888---888--88---555---555--55---555---555-----------------------------|
C|-------------------------------------------------------------------------------------------|
G|---------------------------------------------------------------22233-----------------------|
C|-555---555---55---888---888---88--333---333---33--222---222----22233-----------------------|
[ Tab from: http://www.guitartabs.cc/tabs/m/mudvayne/happy_tab_ver_3.html ]
PALM-MUTE..............................................................
D|-------------------------------------------------------------------------------------------|
A|-------------------------------------------------------------------------------------------|
F|----888---888---88---888---888--88---555---555--55---555---555-----------------------------|
C|-------------------------------------------------------------------------------------------|
G|---------------------------------------------------------------22233-----------------------|
C|-555---555---55---888---888---88--333---333---33--222---222----22233-----------------------|

PALM-MUTE...........................................
D|--------------------------------------------------------------------------------------------|
A|--------------------------------------------------------------------------------------------|
F|----888---888---88---888---888--88---555---555--55---------------000000000000---------------|
C|---------------------------------------------------222----222----555555555555---------------|
G|---------------------------------------------------222----222-------------------------------|
C|-555---555---55---888---888---88--333---333---33---222----222-------------------------------|
BACK-TO-CHORUS

BRIDGE
DISTORTED TONE......................................................................................
D|--------------------------------------------------------------------------------------------------|
A|--------------------------------------------------------------------------------------------------|
F|-0--13-12--12-13-12--0--13-12--12-13-12--0--13-12--12-13-12--0--13-12---12-12-13-15---------------|
C|-0--13-12--12-13-12--0--13-12--12-13-12--0--13-12--12-13-12--0--13-12---12-12-13-15---------------|
G|-0--13-12--12-13-12--0--13-12--12-13-12--0--13-12--12-13-12--0--13-12---12-12-13-15---------------|
C|-0--13-12--12-13-12--0--13-12--12-13-12--0--13-12--12-13-12--0--13-12---12-12-13-15---------------|

CLEAN STRUM CHORDS
D|----------------------------------------------------------------------------------------------------|
A|----------------------------------------------------------------------------------------------------|
F|-5--5--5--5--555--5--5--10--10--10--10---101010--10--10--5--5--5--5--555--5--5--3--3--3--333--3--3--|
C|-8--8--8--8--888--8--8--10--10--10--10---101010--10--10--5--5--5--5--555--5--5--3--3--3--333--3--3--|
G|-5--5--5--5--555--5--5--8---8---8---8----8-8-8---8---8---3--3--3--3--333--3--3--1--1--1--111--1--1--|
C|-5--5--5--5--555--5--5--8---8---8---8----8-8-8---8---8---3--3--3--3--333--3--3--1--1--1--111--1--1--|

D|----------------------------------------------------------------------------------------------------|
A|----------------------------------------------------------------------------------------------------|
F|-5--5--5--5--555--5--5--10--10--10--10---101010--10--10--5--5--5--5--555--5--5--3--3--3--333--3--3--|
C|-8--8--8--8--888--8--8--10--10--10--10---101010--10--10--5--5--5--5--555--5--5--3--3--3--333--3--3--|
G|-5--5--5--5--555--5--5--8---8---8---8----8-8-8---8---8---3--3--3--3--333--3--3--1--1--1--111--1--1--|
C|-5--5--5--5--555--5--5--8---8---8---8----8-8-8---8---8---3--3--3--3--333--3--3--1--1--1--111--1--1--|


OUTRO CHORUS:

D|-------------------------------------------------------------------------------------------|
A|-------------------------------------------------------------------------------------------|
F|-XXXX----------------XXX-----------------XXX-----------------XXXX--X-----1-0-1-3-----------|
C|-5555----------------888-----------------555-----------------1111--1-----1-0-1-3-----------|
G|-5555----------------888-----------------333-----------------1111--1-----1-0-1-3-----------|
C|-5555----------------888-----------------333-----------------1111--1-----1-0-1-3-----------|

D|-------------------------------------------------------------------------------------------|
A|-------------------------------------------------------------------------------------------|
F|-XXXX--000000000000--XXX---000000000000--XXX---000000000000--XXXX--X-----1-0-1-3-----------|
C|-5555--555555555555--888---555555555555--555---555555555555--1111--1-----1-0-1-3-----------|
G|-5555----------------888-----------------333-----------------1111--1-----1-0-1-3-----------|
C|-5555----------------888-----------------333-----------------1111--1-----1-0-1-3-----------|

4 MORE Xs
Comments