Mudvayne - Happy Chords & Tabs

 

Happy Chords & Tabs

Mudvayne Chords & Tabs

Version: 2 Type: Tab 0 ratings
1 star 2 stars 3 stars 4 stars 5 stars
comments

Happy Tab

Band- Mudvayne
Song- Happy

Notes:	This is the new \'single\' from Mudvayne. It\'s pretty good. Here\'s the intro
 	main chorus, as this is the only thing I could tab. Mudvayne plays in C-sharp
	tuning, but I tabbed this for Drop-D tuning. Its sounds good. Please Rate!

if you got suggestions, questions or corrections - ti_mers@hotmail.com

   Intro/Chorus:

|---------------------------------------------------------|
|---------------------------------------------------------|
|-5-5-5-5-11-11-11-11-11-11-11-11-11-11-11-11-11-11-11-11-|
|-3-3-3-3--x--x--x--x--x--x--x--x--x--x--x--x--x--x--x--x-|
|-3-3-3-3--9--9--9--9--9--9--9--9--9--9--9--9--9--9--9--9-|
|-3-3-3-3-------------------------------------------------|
[ Tab from: http://www.guitartabs.cc/tabs/m/mudvayne/happy_tab_ver_2.html ]
|---------------------------------------------------------|
|---------------------------------------------------------|
|-7-7-7-7-11-11-11-11-11-11-11-11-11-11-11-11-11-11-11-11-|
|-5-5-5-5--x--x--x--x--x--x--x--x--x--x--x--x--x--x--x--x-|
|-5-5-5-5--9--9--9--9--9--9--9--9--9--9--9--9--9--9--9--9-|
|-5-5-5-5-------------------------------------------------|

|---------------------------------------------------------|
|---------------------------------------------------------|
|-9-9-9-9-11-11-11-11-11-11-11-11-11-11-11-11-11-11-11-11-|
|-7-7-7-7--x--x--x--x--x--x--x--x--x--x--x--x--x--x--x--x-|
|-7-7-7-7--9--9--9--9--9--9--9--9--9--9--9--9--9--9--9--9-|
|-7-7-7-7-------------------------------------------------|

|----------------------------------------------------------------------|
|----------------------------------------------------------------------|
|-5-5-5-5---7-7-7-7---5-5-4-4------------------------------------------|
|-3-3-3-3---5-5-5-5-xx2-2-2-2------------------------------------------|
|-3-3-3-3---5-5-5-5-xx2-2-2-2------------------------------------------|
|-3-3-3-3---5-5-5-5-xx2-2-2-2------------------------------------------|
Comments