Mudvayne - Happy Chords & Tabs

 

Happy Chords & Tabs

Mudvayne Chords & Tabs

Version: 5 Type: Bass Tab

Happy Bass Tab

   
Mudvayne - Happy?

tuning (low to high) - G C G C F

Riff 1 x2
   ssss  q   Q  s e.   ssss  q   E. ss e.    ssss  q   E  sss e.    ssssE e. ssss s e
|--------------------|---------------------|----------------------|-------------------|
|--------------------|---------------------|----------------------|-------------------|
|4-------------------|---------------------|----------------------|-------------------|
|4-5555-(5)\----5h7--|-8888-(8)\----08h10--|-3333-(3)\----003h5\--|-1110--1--0101h3-3-|
|--------------------|---------------------|----------------------|-------------------|

hit 5th fret on low C string and rest for 4 bars in 4/4

Riff 2 x1
  q.  q  q  ss    q.  e. se e  se.     q.  e. se e se.      e. e se. s e ss e
|--------------|---------------------|-------------------|--------------------|
|--------------|---------------------|-------------------|-----------0h1-0----|
|-----5--------|------8---8h10-8-----|-----3---3h5-3-----|----------------1---|
|-5------5--57-|-/8------8------8\---|-3------3-----3\---|\-1--0-01---------3-|
|--------------|---------------------|-------------------|--------------------|

  ssssssssssssssss   ssssssssssssss e   ssssssssssssssss   ssssss  e   s sss ss e
|------------------|------------------|------------------|-------------------------|
|------------------|------------------|------------------|----------------2---3----|
|---------------43-|-11111111111331-3-|---------------43-|-------------------------|
|-55555555555550---|------------------|-33333333333330---|-222220-/14\-0h2-2h3--3/-|
|------------------|------------------|------------------|-------------------------|

  ssss  q   Q s e.   ssss  q  E. ss e.    ssss  q  E sss e.    ssse ss e   s sss ss e
|------------------|--------------------|--------------------|-------------------------|
|------------------|--------------------|--------------------|----------------2---3----|
|------------------|--------------------|--------------------|-------------------------|
|-5555-(5)\---5h7--|-8888-(8)\---08h10--|-3333-(3)\--003h5\--|-2222-XX/14\-0h2-2h3--3\-|
|------------------|--------------------|--------------------|-------------------------|

Riff 3 x1
  ssss Sssssssss ss s   ssss Ss s s s ssss s  e   ssss Sssssssss s e
|-------7777XX--------|-------10101010XX--------|-------5555XX-------|
|-5555--------55h75h7-|-8888------------88h10p8-|-3333--------33h5p3-|
|-------5555XX--------|-------8-8-8-8-XX--------|-------3333XX-------|
|-5555--------55h75h7-|-8888------------88h10p8-|-3333--------33h5p3-|
|---------------------|-------------------------|--------------------|
        (3)
  ssss Sttte. ssss s e   s sss Ssss ssss ss s   ssss Ss s s s  s  s ss s  e 
|-------X--------------|--------777/8X--------|-------10101010/12\10--------|
|-1110---X-1--0101h3-3-|-3h555--------55h75h7-|-8888----------------X8h10p8-|
|----------------------|--------555/6X--------|-------8-8-8-8-/10\8---------|
|-1110----X1--0101h3-3-|-3h555--------55h75h7-|-8888----------------X8h10p8-|
|----------------------|----------------------|-----------------------------|

  ssss Sssssssss s e   ssss Se. ssss s e
|-------5555XX-------|-------------------|
|-3333--------33h5p3-|-1110--1--0101h3-3-|
|-------3333XX-------|-------------------|
|-3333--------33h5p3-|-1110--1--0101h3-3-|
|--------------------|-------------------|
[ Tab from: http://www.guitartabs.cc/tabs/m/mudvayne/happy_btab_ver_5.html ]
Riff 4 x1
  ssssssssssssssss   sssssssssssssssss   ssssssssssssssss   ssssss  e   s sss sse
|------------------|-------------------|------------------|------------------------|
|------------------|----------------3--|------------------|----------------2---3---|
|---------------43-|-11111111111h335-5-|-------------353--|------------------------|
|-55555555555550---|-------------------|-333333333330---3-|-222220-/14\-0h2-2h3-3\-|
|------------------|-------------------|------------------|------------------------|

  sssssssssss  e sss   sssssssssssssssss   ssssssssssssssss   ssssss  e   s sss sse
|--------------------|-------------------|------------------|------------------------|
|------------3h5-3---|----------------3--|------------------|----------------2---3---|
|-----------------53-|-11111111111h335-5-|-------------353--|------------------------|
|-55555555555--------|-------------------|-333333333330---3-|-222220-/14\-0h2-2h3-3\-|
|--------------------|-------------------|------------------|------------------------|

  ssss  q    ttt Ess e.   ssss  Q    ttt Ess e.    ssss  q    tttSsss e.
|-----------------------|------------------------|------------------------|
|-----------------------|------------------------|------------------------|
|-----------------------|------------------------|------------------------|
|-5555-(5)\--XXX/-05h7--|-8888-(8)\-------08h10--|-3333-(3)\--XXX-003h5\--|
|-----------------------|------------XXX---------|------------------------|

  ssse tt e   s E.Q
|-------------------|
|-------------------|
|-------------------|
|-2222-XX-14\-2-----|
|-------------------|

Riff 3 x1

Fill 1 x1
  s ssssss se sse ss    e. ssss se sse s s   e. ssss se ss e ss   e.  ss sss e sss ss s
|-5/7XX777/87-X55-XX-|---------------------|--------------------|-----------------------|
|--------------------|-/7--X777/87-X55-5h7-|-4--X444h54---------|-----------------------|
|-3/5XX555/65-X33-XX-|---------------------|------------33/6-XX-|-5\--X3h5X3h5-555h66h8-|
|--------------------|-/7--X777/87-X55-5h7-|-4--X444h54---------|-----------------------|
|--------------------|---------------------|------------33/6-XX-|-5\--X3h5X3h5-555h66h8-|

Riff 5 x1
  q.  sq.   e.   q.  ss(Q)se.     q.  ss e e sse    e. e. e. s e ss e
|--------------|----------------|-----------------|-------------------|
|--------------|----------------|-----------------|----------0h1-0----|
|--------------|-----8----------|-----33h5-6-53---|---------------1---|
|-5----5----7--|-8----8---810\--|-3------------3\-|-1--0--1---------3-|
|-----5--------|----------------|-----------------|-------------------|

  q  e s  e. e ss e   e. se s  e.  e ss  e     q  e s  e.se ss  e     e. e. e. s e sse
|-------------------|------------------------|----------------------|------------------|
|-------------------|--------------8-8-------|----------------------|----------0h1-0---|
|----5--5h6--5-5----|-----8--8h10-----8-(8)\-|----3--3h5-53---------|---------------1--|
|-5----5--------5-7-|-8--8--X----------------|-3----3-------33-(3)\-|-1--0--1--------3-|
|-------------------|------------------------|----------------------|------------------|

Riff 1 x2

Riff 6 x1
  ssssS ssssssss s e   ssss E  ssss Ese.   ssssssse sssssss   sssss sse s sss sss
|-------3333XX-------|-------------------|------------------|----------------------|
|-3333--------33h5p3-|-1110-----5--------|------------------|----------------------|
|-------3333XX-------|-------1h3-33--1---|------------------|----------------------|
|-3333--------33h5p3-|-1110-----------3--|-55558505-8508505-|-888810808-108010808\-|
|--------------------|-------------------|------------------|----------------------|

  ssssssse sssssss   ssssssssssssssss   ssssssse sssssss   ssssE   ssss Ese.   ssssQ H
|------------------|------------------|------------------|-------------------|-----------||
|------------------|------------------|------------------|----------5--------|-----------||
|------------------|------------------|------------------|-------1h3-33--1---|-----------||
|-33335303-5305303-|-1111111133333333-|-33335303-5305303-|-1110-----------3--|-5555------||
|------------------|------------------|------------------|-------------------|-----------||