Mudvayne - Happy Chords & Tabs

 

Happy Chords & Tabs

Mudvayne Chords & Tabs

Version: 4 Type: Bass Tab 0 ratings
1 star 2 stars 3 stars 4 stars 5 stars
comments

Happy Bass Tab

-------------------------------------------------------------------------------
			     Happy? - Mudvayne
-------------------------------------------------------------------------------

Have fun with this tab...not too hard compared to Mudvayne's other songs.
I can almost promise this is about 95% correct!

Tabbed By : Shadow8 (David) ME!
e-mail: Mudfandkbass@yahoo.com

Tuning: C,G,C,F. (High to low) You can do it on a 5-string bass too.
5-String Bass Tuning: C,G,C,D,G ((you don't play the D-G strings AT ALL in the song, so 
can leave them in standard tuning!))

Key: T- Tap with 2 fingers index + middle.
Key: / Slide Down.
Key: \ Slide Up.
key: _  Hold note as long as he does in the song.

I'll mark changes in the song, like changing to the chorus,
by doing this- #1, #2, #3, ...

It's better to play this WITH the song, so you can get the timing right.
When you get it it sounds great! Almost perfect!
I'll look over and consider any email I get telling me
I missed something. Thanks!!!!!!  _Shadow8_ (David)

  INTRO:
#1
F|-------------------------------------------------------------|
C|-------------------------------------------------------------|
G|-------------------------------------------------------------|
C|-5-5-5-5-5/--5-7_-8-8-8-8-8/-0-8-10_--3-3-3-3-3/-3-0-3-5_----|

F|-------------------------------------------------------------|
C|-------------------------------------------------------------|
G|-------------------------------------------------------------|
C|-1-1-1-1-1--1-1-1-1-0-1-0-1-3_-------------------------------|

Repeat BOTH as many times needed.


#2
F|-------------------------------------------------------------|
C|-------------------------------------------------------------|
G|--5-5------8-8-10-8-----3-5-3--------------------------------|
C|-5-5-5-5\-8---------8/-3------3/-1-0-1-0-1-3-----------------|
  Don't repeat, only play once!


F|---------------------------------------------------------------------------------------------|
C|---------------------------------------------------------------------------------------------|
G|---------5-----------5------------8---------8----------3-----------3----------1---------1----|
C|-5-5-5-5---5-5-5-5-5---5-7-8-8-8-8-8-8-8-8-8-8/-3-3-3-3-3-3-3-3-3-3-3/-1-1-1-1-1-1-1-1-1-1---|
Repeat as many times needed!
Then do the below:

#1
F|-------------------------------------------------------------|
C|-------------------------------------------------------------|
G|-------------------------------------------------------------|
C|-5-5-5-5-5/--5-7_-8-8-8-8-8/-0-8-10_--3-3-3-3-3/-3-0-3-5_----|

F|-------------------------------------------------------------|
C|-------------------------------------------------------------|
G|-------------------------------------------------------------|
C|-1-1-1-1-1--1-1-1-1-0-1-0-1-3_-------------------------------|

Repeat BOTH as many times needed.
Then do the below.
[ Tab from: http://www.guitartabs.cc/tabs/m/mudvayne/happy_btab_ver_4.html ]
#3
F|---------7-7-7-8-8-7------------10101010-12-----------------3_5_3_--------------------|
C|-7-7-7-7------------7\-10101010-------------101012/-5-5-5-5-------5/-3-2-3-2-3-2-3\-5-|
G|---------5-5-5-6-6-5------------8-8-8-8--10-----------------3_5_3_--------------------|
C|-5-5-5-5------------5\-8-8-8-8--------------8-8-10/-3-3-3-3-------3/-1-0-1-0-1-0_1\-3-|
   T T T T T T T T T TT  T T T T  T T T T  T  T T T   T T T T T T T T  T T T T T T T  T
It may look weird...but try it!
Play once then do the below!

#4
F|-------------------------------------------------------------|
C|-------------------------------------------------------------|
G|-------------------------------------------------------------|
C|-12_-13_-12_-5/12\-7-8-7--3-4-3--0-1-0-0-1-0-1\-3------------|
PLAY ONCE ONLY!!!!!!!		 Play fast enough here!
Then do the below:

#2
F|-------------------------------------------------------------|
C|-------------------------------------------------------------|
G|--5-5------8-8-10-8-----3-5-3--------------------------------|
C|-5-5-5-5\-8---------8/-3------3/-1-0-1-0-1-3-----------------|
  Don't repeat, only play once!

#1
F|-------------------------------------------------------------|
C|-------------------------------------------------------------|
G|-------------------------------------------------------------|
C|-5-5-5-5-5/--5-7_-8-8-8-8-8/-0-8-10_--3-3-3-3-3/-3-0-3-5_----|

F|-------------------------------------------------------------|
C|-------------------------------------------------------------|
G|-------------------------------------------------------------|
C|-1-1-1-1-1--1-1-1-1-0-1-0-1-3_-------------------------------|
Repeat BOTH as many times needed.
Then do the below.

#3
F|---------7-7-7-8-8-7------------10101010-12-----------------3_5_3_--------------------|
C|-7-7-7-7------------7\-10101010-------------101012/-5-5-5-5-------5/-3-2-3-2-3-2-3\-5-|
G|---------5-5-5-6-6-5------------8-8-8-8--10-----------------3_5_3_--------------------|
C|-5-5-5-5------------5\-8-8-8-8--------------8-8-10/-3-3-3-3-------3/-1-0-1-0-1-0_1\-3-|
   T T T T T T T T T TT  T T T T  T T T T  T  T T T   T T T T T T T T  T T T T T T T  T
It may look weird...but try it!

F|---------------------------------------------------------------------------------------------|
C|---------------------------------------------------------------------------------------------|
G|---------5-----------5------------8---------8----------3-----------3----------1---------1----|
C|-5-5-5-5---5-5-5-5-5---5-7-8-8-8-8-8-8-8-8-8-8/-3-3-3-3-3-3-3-3-3-3-3/-1-1-1-1-1-1-1-1-1-1---|
Repeat as many times needed!
Then do the below:


#5 - Ending!
F|-----------------------------------------------------------------------------------------------|
C|-----------------------------------------------------------------------------------------------|
G|---------5-----------5------------8---------8----------3-----------3---------------------------|
C|-5-5-5-5---5-5-5-5-5---5-7-8-8-8-8-8-8-8-8-8-8/-3-3-3-3-3-3-3-3-3-3-3/-1_-1_-0-1-0-1-3-5-5-5-5-|


Thanks for trying out my tab!
I play it with the actual song
all the time!

Hope you like it,
Questions or comments go to:

Mudfandkbass@yahoo.com

Thanks!

_Shadow8_ (David)
Comments