Mudvayne - Happy Chords & Tabs

 

Happy Chords & Tabs

Mudvayne Chords & Tabs

Version: 3 Type: Bass Tab 0 ratings
1 star 2 stars 3 stars 4 stars 5 stars
comments

Happy Bass Tab

   
Band- Mudvayne
Song- Happy

Gtr I (G C G C F) - 'Slap'
Gtr II (G C G C F) - 'Fingered'

   Intro
    Q=105
   4/4
    Gtr II
                                              ~~~
    S S S S Q   Q  S E.   S S S S Q   E. S S  E.   S S S S Q   E S S S E.
||----------------------|------------------------|-------------------------|
||o---------------------|------------------------|-------------------------|
||----------------------|------------------------|-------------------------|
||o-5-5-5-5-5\-----5-7--|-8-8-8-8-8\-----7-8-10--|-3-3-3-3-3\----0-0-3-5---|
||----------------------|------------------------|-------------------------|


                                      Verse
  S S S S E E +S  S S S S S S S        Wx4
|--------------------------------||-||--------|
|-------------------------------o||-||--------|
|--------------------------------||-||--------|
|-1-1-1-1---1-(1)-0-1-0-1-3-3-3-o||-||--------|
|--------------------------------||-||--------|


  Q.   E +E  Q  E   Q.   E +S  S  E S E.
|-----------------|----------------------|
|-----------------|----------------------|
|------5-(5)------|------8-(8)-8-10-8----|
|-5----------5--5-|-8-----------------8\-|
|-----------------|----------------------|


  Q.   E +S  S E S E.   E. S +E  E +S   E. E E
|---------------------|-------------------------|
|---------------------|-------------------------|
|------3-(3)-3-5-3----|----------------/6--5----|
|-3----------------3\-|-1--0-(0)-1-(1)-------3--|
|---------------------|-------------------------|


  S S S S S S S S S S S S S S S S   S S S S S S S S S S S S S S E
|---------------------------------|--------------------------------|
|---------------------------------|--------------------------------|
|-----------------------------3-3-|-1-1-1-1-1-1-1-1-1-1-1-3-3-1-3--|
|-5-5-5-5-5-5-5-5-5-5-5-5-5-5-----|--------------------------------|
|---------------------------------|--------------------------------|


  S S S S S S S S S S S S S S S S   S S S S S S  S S  S S S S S S S S
|---------------------------------|-----------------------------------|
|---------------------------------|-----------------------2-----------|
|-----------------------------4-3-|-------------/7---/7---------------|
|-3-3-3-3-3-3-3-3-3-3-3-3-3-3-----|-2-2-2-2-2-2----2----2---2-2-3-3-3-|
|---------------------------------|-----------------------------------|


                                            ~~~
  S S S S Q   Q  S E.   S S S S Q   E. S S  E.
|---------------------|------------------------|
|---------------------|------------------------|
|---------------------|------------------------|
|-5-5-5-5-5\-----5-7--|-8-8-8-8-8\-----7-8-10--|
|---------------------|------------------------|


                                             Gtr I
  S S S S Q   E S S S E.   S S S S +S  S  E  S S S S S S E
|------------------------|-----------------------------------|
|------------------------|-----------------------2-----2-----|
|------------------------|---------------/7\-----------------|
|-3-3-3-3-3\----0-0-3-5--|-2-2-2-2-(2)-2-----2-2---2-2---2---|
|------------------------|-----------------------------------|


 Chorus
  S S S S S S S S S S S S S S S S   S S S S S S S S S S S S S  S E
|---------------------------------|---------------------------------|
|---------------------------------|---------------------------------|
|-----------5-5-5-5---------------|-----------8-8-8-8-x-------------|
|-5-5-5-5-----------x-5-5-5s7-5s7-|-8-8-8-8-------------8-8-8s10-8--|
|---------------------------------|---------------------------------|


  S S S S S S S S S S S S S S E   S S S S E E +S  S S S S S E
|-------------------------------|------------------------------|
|-------------------------------|------------------------------|
|-----------3-3-3-3-x-----------|------------------------------|
|-3-3-3-3-------------3-3-3s5-3-|-1-1-1-1---1-(1)-0-1-0-1h3-3--|
|-------------------------------|------------------------------|


  S S S S S S S S S S S S S S S S   S S S S S S S S S  S S S S  S E
|---------------------------------|----------------------------------|
|---------------------------------|----------------------------------|
|-----------5-5-5-5s6-------------|-----------8-8-8-8s10----------8--|
|-5-5-5-5-------------x-5-5s7-5s7-|-8-8-8-8--------------x-8-8s10----|
|---------------------------------|----------------------------------|


  S S S S S S S S S S S S S S E   S S S S E E +S  S S S S S E
|-------------------------------|------------------------------|
|-------------------------------|------------------------------|
|-----------3-3-3-3-x-----------|------------------------------|
|-3-3-3-3-------------3-3-3s5-3-|-1-1-1-1---1-(1)-0-1-0-1h3-3--|
|-------------------------------|------------------------------|


 Verse
  Gtr II
  S S S S S S S S S S S S S S S S   S S S S S S S S S S S S S S S S
|---------------------------------|---------------------------------|
|---------------------------------|-----------------------------3-0-|
|-----------------------------3-3-|-1-1-1-1-1-1-1-1-1-1-1-1-1-3-----|
|-5-5-5-5-5-5-5-5-5-5-5-5-5-5-----|---------------------------------|
|---------------------------------|---------------------------------|


  S S S S S S S S S S S S S S S S   S S S S S S  S S  S S S S S S E
|---------------------------------|----------------------------------|
|---------------------------------|-----------------------2-----2----|
|-------------------------3-5-3-3-|-------------/7---/7--------------|
|-3-3-3-3-3-3-3-3-3-3-3-3---------|-2-2-2-2-2-2----2----2---2-3---3--|
|---------------------------------|----------------------------------|


  S S S S S S S S S S S  S +S  S S S   E. S S S E +S  S S S +S  S S S
|------------------------------------|--------------------------------|
|-----------------------/5-(5)-3-----|--------------------------0-3-0-|
|--------------------------------5-3-|-1--1-1-1-1-(1)-1-1h3-(3)-------|
|-5-5-5-5-5-5-5-5-5-5-5--------------|--------------------------------|
|------------------------------------|--------------------------------|


  S S S S S S S S S S S S S S S S   S S S S S S  S S  S S S S S S E
|---------------------------------|----------------------------------|
|---------------------------------|-----------------------2-----2----|
|-------------------------3-5-3-3-|-------------/7---/7--------------|
|-3-3-3-3-3-3-3-3-3-3-3-3---------|-2-2-2-2-2-2----2----2---2-3---3--|
|---------------------------------|----------------------------------|


                                                     ~~~
  S S S S +Q    E. S S S E   S S S S +Q     e S S S  E.
|--------------------------|----------------------------|
|--------------------------|---------------/x-----------|
|--------------------------|----------------------------|
|-5-5-5-5-(5)\-----x-5-7-7-|-8-8-8-8-(8)\-------7-8-10--|
|--------------------------|----------------------------|


                                                 Gtr I
  S S S S +Q     e S S S S S S   S S S S +E  S S S E. Q
|------------------------------|--------------------------|
|---------------/x-------------|-------------2------------|
|------------------------------|--------------------------|
|-3-3-3-3-(3)\-----0-0-3-5-5-5-|-2-2-2-2-(2)---2-2--------|
|------------------------------|--------------------------|


 Chorus
  S S S S S S S S S S S S S S S S   S S S S S S S S S S S S S  S E
|---------------------------------|---------------------------------|
|---------------------------------|---------------------8-8---------|
|-----------5-5-5-5---------------|-----------8-8-8-8---------------|
|-5-5-5-5-------------5-5-5s7-5s7-|-8-8-8-8-----------------8s10-8--|
|---------------------------------|---------------------------------|


  S S S S S S S S S S S S S S E   S S S S E E +S  S S S S S E
|-------------------------------|------------------------------|
|-------------------------------|------------------------------|
|-----------3-3-3-3-------------|------------------------------|
|-3-3-3-3-------------3-3-3s5-3-|-1-1-1-1---1-(1)-0-1-0-1h3-3--|
|-------------------------------|------------------------------|


  S S S S S S S S S S S S S S S S   S S S S  S S S S S  S S S S  S E
|---------------------------------|-----------------------------------|
|---------------------------------|-----------------------------------|
|-----------5-x-5s6-x-------------|------------8-x-8-8s10-8-----------|
|-5-5-5-5-------------5-5-5s7-5s7-|-8-8-8-8\----------------x-8s10-8--|
|---------------------------------|-----------------------------------|

[ Tab from: http://www.guitartabs.cc/tabs/m/mudvayne/happy_btab_ver_3.html ]
  S S S S S S S S S S S S S S E   S S S S E E +S  S S S S S E
|-------------------------------|------------------------------|
|-------------------------------|------------------------------|
|-----------3-3-3-3-x-----------|------------------------------|
|-3-3-3-3-------------3-3-3s5-3-|-1-1-1-1---1-(1)-0-1-0-1h3-3--|
|-------------------------------|------------------------------|


 Bridge
    |-3-|                           |-3-|
  E S S S S S S S E S S S S S S   E S S S S S E E S S S S S S
|-------------------------------|-----------------------------|
|-------------------------------|-----------------------------|
|-5-x-x-x-5-5-x-x-5-x-x-3-3-0-0-|-0-x-x-x-0-0-0-0-x-----------|
|-------------------------------|-------------------5-5-5-5-5-|
|-------------------------------|-----------------------------|


  E. S S S E E S S S S E   E. S S E S S S S S S S E
|------------------------|--------------------------|
|------------------------|--------------------------|
|------------------------|-5\-----------------------|
|-4--x-4-4-4-4-x---------|--------------------------|
|----------------3-5s7s5-|----0-3h5-3h5---x-3-5s6-6-|


 Break
  Gtr II
  Q.   S S +Q   S E.   Q.   S S +Q   S  E.
|--------------------|---------------------|
|--------------------|---------------------|
|--------------------|------8--------------|
|-5----8-5-(5)--5-7--|-8------8-(8)--8-10--|
|--------------------|---------------------|


  Q.   S a S +E  E S S E   E. S +E  E +S   E. S S E
|------------------------|--------------------------|
|------------------------|--------------------------|
|------3-3s5-(5)-6-5-1---|----------------/6--5-1---|
|-3--------------------3-|-1--0-(0)-1-(1)---------3-|
|------------------------|--------------------------|


  Q  E S S E E S S S S   Q  S S S a  S  +E  E S E.
|----------------------|---------------------------|
|----------------------|--------------------8-7----|
|----5---5s6-5-5-------|----8---8-8s10-(10)-----8\-|
|-5----5---------8-5-7-|-8----x--------------------|
|----------------------|---------------------------|


  Q  E S a S +E  E S E.   E. S +E  E +S   E. S S E
|-----------------------|----------------------------|
|-----------------------|----------------------------|
|----3-x-3s5-(5)-3------|----------------/6--5-1-----|
|-3----------------3-3\-|-1--0-(0)-1-(1)---------3---|
|-----------------------|----------------------------|


 Chorus
                   ~~                       ~~~
  S S S S Q   Q  S E.   S S S S Q   E. S S  E.
|---------------------|------------------------|
|---------------------|------------------------|
|---------------------|------------------------|
|-5-5-5-5-5\-----5-7--|-8-8-8-8-8\-----7-8-10--|
|---------------------|------------------------|


  S S S S Q   E S S S E.   S S S S E E +S  S S S S S S S
|------------------------|---------------------------------|
|------------------------|---------------------------------|
|------------------------|---------------------------------|
|-3-3-3-3-3\----0-0-3-5--|-1-1-1-1---1-(1)-0-1-0-1-3-3-3---|
|------------------------|---------------------------------|


                   ~~                       ~~~
  S S S S Q   Q  S E.   S S S S Q   E. S S  E.
|---------------------|------------------------|
|---------------------|------------------------|
|---------------------|------------------------|
|-5-5-5-5-5\-----5-7--|-8-8-8-8-8\-----7-8-10--|
|---------------------|------------------------|


  S S S S Q   E S S S E.   S S S S E E +S  S S S S S S S
|------------------------|---------------------------------|
|------------------------|---------------------------------|
|------------------------|---------------------------------|
|-3-3-3-3-3\----0-0-3-5--|-1-1-1-1---1-(1)-0-1-0-1-3-3-3---|
|------------------------|---------------------------------|


  Gtr I
  S S S S S S S S S S S S S S S S   S S S S S S S S S S S S S  S E
|---------------------------------|---------------------------------|
|---------------------------------|---------------------------------|
|-----------5-5-5-5---------------|-----------8-8-8-8-x-------------|
|-5-5-5-5-----------x-5-5-5s7-5s7-|-8-8-8-8-------------8-8-8s10-8--|
|---------------------------------|---------------------------------|


  S S S S S S S S S S S S S S E   S S S S E E +S  S S S S S E
|-------------------------------|------------------------------|
|-------------------------------|------------------------------|
|-----------3-3-3-3-x-----------|------------------------------|
|-3-3-3-3-------------3-3-3s5-3-|-1-1-1-0---1-(1)-0-1-0-1h3-3--|
|-------------------------------|------------------------------|


  S S S S S S S S S S S S S S S S   S S S S S S S S S  S S S S  S E
|---------------------------------|----------------------------------|
|---------------------------------|----------------------------------|
|-----------5-5-5-5s6-------------|-----------8-8-8-8s10-------------|
|-5-5-5-5-------------x-5-5s7-5s7-|-8-8-8-8--------------x-8-8s10-8--|
|---------------------------------|----------------------------------|


  S S S S S S S S S S S S S S E   S S S S E S S S E. S E.
|-------------------------------|-------------------------|
|-------------------------------|-------------5-----------|
|-----------3-3-3-3-x-----------|-----------3---3----1----|
|-3-3-3-3-------------3-3-3s5-3-|-1-1-1-1--------------3--|
|-------------------------------|-------------------------|


 Out-Chorus
  Gtr II
  S S S S S S S S +S  S S S S S S S   S S S S  S S S S +S   S S S  S S S S
|-----------------------------------|--------------------------------------|
|-----------------------------------|--------------------------------------|
|-----------------------------------|--------------------------------------|
|-5-5-5-5-8-5-0-5-(5)-8-5-0-8-5-0-5-|-8-8-8-8-10-8-0-8-(8)-10-8-0-10-8-0-8-|
|-----------------------------------|--------------------------------------|


  S S S S S S S S +S  S S S S S S S   S S S S S S S S S S S S S S S S
|-----------------------------------|---------------------------------|
|-----------------------------------|---------------------------------|
|-----------------------------------|---------------------------------|
|-3-3-3-3-5-3-0-3-(3)-5-3-0-5-3-0-3-|-1-1-1-1-1-1-1-1-3-3-3-3-3-3-3-3-|
|-----------------------------------|---------------------------------|


  S S S S S S S S +S  S S S S S S S   S S S S  S S S S +S   S S S  S S S S
|-----------------------------------|--------------------------------------|
|-----------------------------------|--------------------------------------|
|-----------------------------------|--------------------------------------|
|-5-5-5-5-8-5-0-5-(5)-8-5-0-8-5-0-5-|-8-8-8-8-10-8-0-8-(8)-10-8-0-10-8-0-8-|
|-----------------------------------|--------------------------------------|


                                                               2/4
  S S S S S S S S +S  S S S S S S S   S S S S E S S S E. S E.   S S S S Q
|-----------------------------------|-------------------------|------------*|
|-----------------------------------|-------------5-----------|------------*|
|-----------------------------------|-----------3---3----1----|------------*|
|-3-3-3-3-5-3-0-3-(3)-5-3-0-5-3-0-3-|-1-1-1-1--------------3--|-5-5-5-5----*|
|-----------------------------------|-------------------------|------------*|


Duration Legend
---------------
W - whole; H - half; Q - quarter; E - 8th; S - 16th; T - 32nd; X - 64th; a - acciaccatura
+ - note tied to previous; . - note dotted; .. - note double dotted
Uncapitalized letters represent notes that are staccato (1/2 duration)
Irregular groupings are notated above the duration line
Duration letters will always appear directly above the note/fret number it represents the
duration for.  Duration letters with no fret number below them represent rests.  Multi-
bar rests are notated in the form Wxn, where n is the number of bars to rest for.  Low
melody durations appear below the staff

Tablature Legend
----------------
 h   - hammer-on
 p   - pull-off
 b   - bend
 pb  - pre-bend
 r   - bend release (if no number after the r, then release immediately)
 /\  - slide into or out of (from/to "nowhere")
 s   - legato slide
 S   - shift slide
  - natural harmonic
[n]  - artificial harmonic
n(n) - tapped harmonic
 ~   - vibrato
 tr  - trill
 T   - tap
 TP  - trem. picking
 PM  - palm muting
\n/  - tremolo bar dip; n = amount to dip
 \n  - tremolo bar down
 n/  - tremolo bar up
/n\  - tremolo bar inverted dip
 =   - hold bend; also acts as connecting device for hammers/pulls
 <>  - volume swell (louder/softer)
 x   - on rhythm slash represents muted slash
 o   - on rhythm slash represents single note slash

Misc Legend
-----------
 |  - bar
||  - double bar
||o - repeat start
o|| - repeat end
*|  - double bar (ending)
 :  - bar (freetime)
 $  - Segno
 &  - Coda
Tempo markers -  = BPM(8/16=s8/s16), where s8 = swing 8ths, s16 = swing 16ths


***************************************************************************************
* Generated using Power Tab Editor by Brad Larsen - http://powertab.guitarnetwork.org *
***************************************************************************************
Comments