Mudvayne - Happy Chords & Tabs

 

Happy Chords & Tabs

Mudvayne Chords & Tabs

Version: 2 Type: Bass Tab 0 ratings
1 star 2 stars 3 stars 4 stars 5 stars
comments

Happy Bass Tab

Band- Mudvayne
Song- Happy?

F[---------------------------------------------------------]
C[---------------------------------------------------------]
G[---------------------------------------------------------]  
C[--5-5-5-5-5\\----5/7--8-8-8-8-8\\----0-8/10---3-3-3-3-3\\]
                                                                  
F[---------------------------------------------------------]
C[---------------------------------------------------------]
G[---------------------------------------------------------]  
C[--3-0-3/5--1-1-1-1---1-1-1-0-1-0-1/3---------------------] x2

                           verse 1
   (0:29)
F[----------------------------------------------------------------]
C[-------------------------------------------------------1/3-1----]
G[-----5---5-------8--8/10-8--------3--3/5-3--------1---1------1--]  
C[--5---55--5/-7/8---8--------8--3---3-------3-1-1--11------------]
   (0:39)
F[----------------------------------------------------------------]
C[----------------------------------------------------------------]
G[----------------------------------------------------------------]  
C[-555555555555/-7h8p7--888888888888-8h10p8-333333333333--3h5p3---]  

F[----------------------------------------------------------------]
C[---------------1-----3------------------------------------------]
G[-------------1-----3--3-----------------------------------------]  
C[-11111111-0-1----3----------------------------------------------]
   (0:48)
F[---------------------------------------------------------]
C[---------------------------------------------------------]
G[---------------------------------------------------------]  
C[--5-5-5-5-5\\----5/7--8-8-8-8-8\\----0-8/10---3-3-3-3-3\\]
                                                                  
F[---------------------------------------------------------]
C[---------------------------------------------------------]
G[---------------------------------------------------------]  
C[--3-0-3/5--1-1-1-1---1-1-1-0-1-0-1/3---------------------]

   (0:57)             chorus

F[----------------------------------------------------]
C[-------------------------------------8888h10p8------]
G[-----55556666-6p5---------8/10-101010---------10p8--]  
C[-5555------------5h7---888--------------------------]

F[--------------------------------------------------]
C[------------3333h5p3------------------------------]
G[-----3/5-555--------5p3---------------------------]  
C[-333--------------------1-1-1-1--1-1-1-0-1-0-1/3--]  x2
                             
   (1:16)             verse 2

F[--------------------------------------------------------------]
C[--------------------------------------------------------------]
G[--------------------------------------------------------------]  
C[-555555555555/-7h8p7-888888888888-8h10p8-333333333333-3h5p3---] 

F[------------------------|----------------------------------]
C[---------------1-----3--|----------------------------------]
G[-------------1-----3--3-|------------5/88101088------------]  
C[-11111111-0-1----3------|-5555555555-------------8888888888]
[ Tab from: http://www.guitartabs.cc/tabs/m/mudvayne/happy_btab_ver_2.html ]
F[---------------------------------------------------]
C[----------------------------------------- 1-----3--]
G[----------------------------------------1-----3--3-]  
C[-8h10p8-333333333333/-3h5p3-11111111-0-1----3------]
   (1:36)
F[---------------------------------------------------------]
C[---------------------------------------------------------]
G[---------------------------------------------------------]  
C[--5-5-5-5-5\\----5/7--8-8-8-8-8\\----0-8/10---3-3-3-3-3\\]
                                                                  
F[---------------------------------------------------------]
C[---------------------------------------------------------]
G[---------------------------------------------------------]  
C[--3-0-3/5--1-1-1-1---1-1-1-------------------------------]

    (1:46)            chorus
F[----------------------------------------------------]
C[-------------------------------------8888h10p8------]
G[-----55556666-6p5---------8/10-101010---------10p8--]  
C[-5555------------5h7---888--------------------------]

F[--------------------------------------------------]
C[------------3333h5p3------------------------------]
G[-----3/5-555--------5p3---------------------------]  
C[-333--------------------1-1-1-1--1-1-1-0-1-0-1/3--]  x2

   (2:05)                       
F[----------------------------------------------------------------]  
C[----------------------------------------------------------------]
G[----------------------------------------------------------------]  
C[-12-12h13p12-12--7-7h8p7-7-7787--4-4h5p4-4-4454--0-0h1h0-0-0010-]
   (2:14)
F[------------------------------------------------------------------------] 
C[------------------------------------------------------------------------] u really need to listen hard to 
G[-----5----5---------8/10---------------3/5-8-7-7-775------1--------1----] follow the timings..as the bass  
C[--5---5-55--5/-7/8-------8-88-8/10--3-3----------------1-1---11-111--1--] in this song isnt as prounounced
                                                                            as previous mudvayne songs i 
F[------------------------------------------------------------------------] suggest u turn up the bass a 
C[---------------------------8-----------------3h5p5--------------1/3-1---] little to make this easier to 
G[----5----5/6-5--------8/10---10p8--------3/5-------5p3-----1---1-------1] understand
C[-5----55-------5/-7/8-------------8-3-3---------------1-1---11----------]

F[----------------------------------------------------------]
C[----------------------------------------------------------]
G[----------------------------------------------------------]  
C[--5-5-5-5-5\\----5/7--8-8-8-8-8\\----0-8/10---3-3-3-3-3\\-]
                                                                  
F[---------------------------------------------------------]
C[---------------------------------------------------------]
G[---------------------------------------------------------]  
C[--3-0-3/5--1-1-1-1---1-1-1-0-1-0-1/3---------------------] x2
                     chorus  
    (2:53)
F[----------------------------------------------------]
C[-------------------------------------8888h10p8------]
G[-----55556666-6p5---------8/10-101010---------10p8--]  
C[-5555------------5h7---888--------------------------]

F[--------------------------------------------------]
C[------------3333h5p3------------------------------]
G[-----3/5-555--------5p3---------------------------]  
C[-333--------------------1-1-1-1--1-1-1-0-1-0-1/3--]  x2
                        outro
    (3:12)
F[----------------------------------------------------------------]
C[----------------------------------------------------------------]
G[----------------------------------------------------------------]  
C[-55555h7-0-5-0-5-0-5h7-0----88888h10-0-8-0-10-0-8h10-0----------]

F[----------------------------------------------------------------]
C[----------------------------------------------------------------]
G[----------------------------------------------------------------]  
C[-33333h5-0-3-0-3-3h5-0---1-1-1-1--1-1-1-0-1-0-1/3---------------]

F[----------------------------------------------------------------]
C[----------------------------------------------------------------]
G[----------------------------------------------------------------]  
C[-55555h7-0-5-0-5-0-5h7-0----88888h10-0-8-0-10-0-8h10-0----------]

F[----------------------------------------------------------------]
C[----------------------------------------------------------------]
G[----------------------------------------------------------------]  
C[-33333h5-0-3-0-3-3h5-0---1-1-1-1--1-1-1-0-1-0-1/3--5555---------]
Comments