Mudvayne - Happy Chords & Tabs

 

Happy Chords & Tabs

Mudvayne Chords & Tabs

Version: 1 Type: Bass Tab 0 ratings
1 star 2 stars 3 stars 4 stars 5 stars
comments

Happy Bass Tab

BAnd- Mudvayne
Song- Happy

intro
 G------------------------------------|
 D------------------------------------|
 A------3-3-3-3-3-3------3-3-3-3-3-3--|
 E-0-0----------------00--------------|

 G------------------------------ <
 D------------------------------ <
 A-------3-3-3-3-3-3------------ <
 E -0-0----------------0-0-1-2-0 <

 G------------------------------------|
 D------------------------------------|
 A------3-3-3-3-3-3------3-3-3-3-3-3--|
 E-0-0----------------00--------------|

 G------------------------------ <
 D------------------------------ <
 A-------3-3-3-3-3-3------------ <
 E -0-0----------------0-0-1-2-0 <

 G--------------------------------------------|
 D--------------------------------------------|
 A-0---3----------0---3---------0---3---------|
 E---------3---6---------3---6---------3---6-|

 G--------------------------------------------------------------|
 D--------------------------------------------------------------|
 A-11111111-33333333------------------11111111-33333333---------|
 E-------------------6666666666666666-------------------6666666-|

 G-------------------------------------- <
 D-------------------------------------- < I
 A------3-3-3-3-3-3------3-3-3-3-3-3---- < I
 E-0-0----------------00---------------- < I
                                   play twice
 G-------------------------------------- <       I
 D-------------------------------------- <       I
 A-------3-3-3-3-3-3-------------------- <       I
 E -0-0----------------0-0-1-2-0      -- <
[ Tab from: http://www.guitartabs.cc/tabs/m/mudvayne/happy_btab.html ]
 G--------------------------------------------------------------|
 D--------------------------------------------------------------|
 A-11111111-33333333------------------11111111-33333333---------|
 E-------------------6666666666666666-------------------6666666-|

 G-------------------------------------- <
 D-------------------------------------- < I
 A------3-3-3-3-3-3------3-3-3-3-3-3---- < I
 E-0-0----------------00---------------- < I
                                   play twice
 G-------------------------------------- <       I
 D-------------------------------------- <       I
 A-------3-3-3-3-3-3-------------------- <       I
 E -0-0----------------0-0-1-2-0      -- <

 G-------------------------------------|
 D-------------------------------------|
 A---------------1-2-1-2------1-2-1-2--|
 E-0-0-0-0-0-0----------0-0------------|

 G--------------------------------------------|
 D--------------------------------------------|
 A-0---3----------0---3---------0---3---------|
 E---------3---6---------3---6---------3---6-|

 "Tear me..."
 G--------------------------------------------|
 D--------------------------------------------|
 A--------------------------------------------|
 E-000-----000-----000------000---------------|

  G-------------------------------------- <
 D--------------------------------------- < I
 A------3-3-3-3-3-3------3-3-3-3-3-3----- < I
 E-0-0----------------00----------------- < I
                                   play 3 times
 G-------------------------------------- <       I
 D-------------------------------------- <       I
 A-------3-3-3-3-3-3-------------------- <       I
 E -0-0----------------0-0-1-2-0      -- <

 G--------------------------------------- <
 D--------------------------------------- < Iplay to end
 A---------------1-2-1-2------1-2-1-2---- < I
 E-0-0-0-0-0-0----------0-0-------------- <
Comments