Mudvayne - Fucking Determined Chords & Tabs

 

Fucking Determined Chords & Tabs

Mudvayne Chords & Tabs

Version: 1 Type: Tab 0 ratings
1 star 2 stars 3 stars 4 stars 5 stars
comments

Fucking Determined Tab

   
Band- Mudvayne
Song- Fucking Determined

this is mudvayne's new single and it is an awsome song. this song is super easy
to play. TUNING (CGCFAD)
D------------------|          (INTRO)
A------------------|          repeat an needed
F------------------|
C------------------|
G------------------|
C-2222333355558888-
                                         after intro play this....this is also the chorus
D----------------------------------|
A----------------------------------|
F----------------------------------|
C----------------------------------|
G-0-3-0-3-0-3-0-3-6-0--0-5h6p0-6-0-|
C-0-3-0-3-0-3-0-3-6-0--0-5h6p0-6-0-|

D-------------------1-1-1-1-|                 (VERSE) repeat as needed
A-------------------4-4-4-4-|
F---------------------------|
C---------------------------|
G-2-2-2-0-2-0-22222---------|
C-2-2-2-0-2-0-22222---------|
[ Tab from: http://www.guitartabs.cc/tabs/m/mudvayne/fucking_determined_tab.html ]
D----------------------------------|
A----------------------------------|
F----------------------------------|             (CHORUS)
C----------------------------------|
G-0-3-0-3-0-3-0-3-6-0--0-5h6p0-6-0-|
C-0-3-0-3-0-3-0-3-6-0--0-5h6p0-6-0-|

D-------------------1-1-1-1-|                 (VERSE) repeat as needed
A-------------------4-4-4-4-|
F---------------------------|
C---------------------------|
G-2-2-2-0-2-0-22222---------|
C-2-2-2-0-2-0-22222---------|

D----------------------------------|
A----------------------------------|
F----------------------------------|             (CHORUS)
C----------------------------------|
G-0-3-0-3-0-3-0-3-6-0--0-5h6p0-6-0-|
C-0-3-0-3-0-3-0-3-6-0--0-5h6p0-6-0-|

then you get to the bridge and just use these three keys over and over...just listen
to the song and you can probably figure it out..IM TO LAZY TO TAB THE REST OUT

D-------|
A-------|
F-------|
C-------|
G-2-0-6-|
C-2-0-6-|

after bridge start over from the top...well, that is it, this is an awsome song by mudvayne..
just listen to the song and you should be fine...
Comments