Mudvayne - Forget To Remember Chords & Tabs

 

Forget To Remember Chords & Tabs

Mudvayne Chords & Tabs

Version: 5 Type: Tab 0 ratings
1 star 2 stars 3 stars 4 stars 5 stars
comments

Forget To Remember Tab

   
-------------------------------------------------------------------------------
			     FORGET TO REMEMBER - Mudvayne
-------------------------------------------------------------------------------
Tabbed By: Matty Boy
Email: mattituded@hotmail.com

Tuning: Drop C, 1 Step Down from Drop D. 

C G C F A D

In The Intro and Choruses Guitar 2 comes in after 2 lines of music. 
In the last guitar 2 bit played in the song
guitar 2 plays the whole time that guitar 1 does. Enjoy, and if you
 have any Changes or corrections then email 
me at mattituded@hotmail.com 

Intro: 2 Guitars 
Guitar 1:
D|-------------------------------------|
A|-------------------------------------|
F|-------------------------------------|
C|-000-0-000-3h20h2--888-8-8333-3-3----|
G|-000-0-000-3h20h2--888-8-8333-3-3----|
C|-000-0-000-3h20h2--888-8-8333-3-3----|

D|--------------------------------------------|
A|--------------------------------------------|
F|--------------------------------------------|
C|-000-0-000-3h20h2--8888-8-8-0h3330h222------|
G|-000-0-000-3h20h2--8888-8-8-0h3330h222------|
C|-000-0-000-3h20h2--8888-8-8-0h3330h222------|

D|-------------------------------------|
A|-------------------------------------|
F|-------------------------------------|
C|-000-0-000-3h20h2--888-8-8333-3-3----|
G|-000-0-000-3h20h2--888-8-8333-3-3----|
C|-000-0-000-3h20h2--888-8-8333-3-3----|

D|-------------------------------------|
A|-------------------------------------|
F|-------------------------------------|
C|-000-0-000-3h20h2--888-8-83333322----|
G|-000-0-000-3h20h2--888-8-83333322----|
C|-000-0-000-3h20h2--888-8-83333322----|

Intro
Guitar 2:
D|---------------------------------------------------------|
A|---------------------------------------------------------|
F|-14141414141414141414141414/1212121212121212-------------|
C|-X-X-X-X-X-X-X-X-X-X-X-X-X-/X-X-X-X-X-X-X-X--------------|  (x2)
G|-12121212121212121212121212/1010101010101010-------------|
C|---------------------------------------------------------|

Verse 1:
D|---------------------------------------------------------------------------|
A|---------------------------------------------------------------------------|
F|---------------------------------------------------------------------------|
C|----------12-----------12-------12----0-0-0-0-10-0-0-0---------------------| (x8)
G|--8-8-8-8----8-8-8-8-8----8-8-8----8--------------------8h70h70h7h8p7------|
C|---------------------------------------------------------------------------|

Chorus:2 Guitars
Guitar 1:
D|-------------------------------------|
A|-------------------------------------|
F|-------------------------------------|
C|-000-0-000-3h20h2--888-8-8333-3-3----|
G|-000-0-000-3h20h2--888-8-8333-3-3----|
C|-000-0-000-3h20h2--888-8-8333-3-3----|

D|--------------------------------------------|
A|--------------------------------------------|
F|--------------------------------------------|
C|-000-0-000-3h20h2--8888-8-8-0h3330h222------|
G|-000-0-000-3h20h2--8888-8-8-0h3330h222------|
C|-000-0-000-3h20h2--8888-8-8-0h3330h222------|

D|-------------------------------------|
A|-------------------------------------|
F|-------------------------------------|
C|-000-0-000-3h20h2--888-8-8333-3-3----|
G|-000-0-000-3h20h2--888-8-8333-3-3----|
C|-000-0-000-3h20h2--888-8-8333-3-3----|

D|-------------------------------------|
A|-------------------------------------|
F|-------------------------------------|
C|-000-0-000-3h20h2--888-8-83333322----|
G|-000-0-000-3h20h2--888-8-83333322----|
C|-000-0-000-3h20h2--888-8-83333322----| 

Guitar 2:
D|---------------------------------------------------------|
A|---------------------------------------------------------|
F|-14141414141414141414141414/1212121212121212-------------|
C|-X-X-X-X-X-X-X-X-X-X-X-X-X-/X-X-X-X-X-X-X-X--------------|  (x2)
G|-12121212121212121212121212/1010101010101010-------------|
C|---------------------------------------------------------|
[ Tab from: http://www.guitartabs.cc/tabs/m/mudvayne/forget_to_remember_tab_ver_5.html ]
Verse 2:
D|---------------------------------------------------------------------------|
A|---------------------------------------------------------------------------|
F|---------------------------------------------------------------------------|
C|----------12-----------12-------12----0-0-0-0-10-0-0-0---------------------| (x6)
G|--8-8-8-8----8-8-8-8-8----8-8-8----8--------------------8h70h70h7h8p7------|
C|---------------------------------------------------------------------------|

Chorus: 2 Guitars
Guitar 1:
D|-------------------------------------|
A|-------------------------------------|
F|-------------------------------------|
C|-000-0-000-3h20h2--888-8-8333-3-3----|
G|-000-0-000-3h20h2--888-8-8333-3-3----|
C|-000-0-000-3h20h2--888-8-8333-3-3----|

D|--------------------------------------------|
A|--------------------------------------------|
F|--------------------------------------------|
C|-000-0-000-3h20h2--8888-8-8-0h3330h222------|
G|-000-0-000-3h20h2--8888-8-8-0h3330h222------|
C|-000-0-000-3h20h2--8888-8-8-0h3330h222------|

D|-------------------------------------|
A|-------------------------------------|
F|-------------------------------------|
C|-000-0-000-3h20h2--888-8-8333-3-3----|
G|-000-0-000-3h20h2--888-8-8333-3-3----|
C|-000-0-000-3h20h2--888-8-8333-3-3----|

D|-------------------------------------|
A|-------------------------------------|
F|-------------------------------------|
C|-000-0-000-3h20h2--888-8-83333322----|
G|-000-0-000-3h20h2--888-8-83333322----|
C|-000-0-000-3h20h2--888-8-83333322----|

Guitar 2:
D|---------------------------------------------------------|
A|---------------------------------------------------------|
F|-14141414141414141414141414/1212121212121212-------------|
C|-X-X-X-X-X-X-X-X-X-X-X-X-X-/X-X-X-X-X-X-X-X--------------|  (x2)
G|-12121212121212121212121212/1010101010101010-------------|
C|---------------------------------------------------------|

Interlude:
D|---------------------------------------------|
A|---------------------------------------------|
F|-5/777777777777777/1010101010101010\99999999-|
C|-x/-xxxxxxxxxxxxxx/x-x-x-x-x-x-x-x-\xxxxxxxx-| (x4)
G|-3/555555555555555/8-8-8-8-8-8-8-8-\77777777-|
C|---------------------------------------------| 

Break:
D|-----------------|
A|-----------------|
F|-----------------|
C|-----------------|
G|-----------------|
C|-1p000-1p001p000-|


D|---------------------------------------------|
A|---------------------------------------------|  
F|---------------------------------------------|
C|-1p000-1p001p000--1p000-1p001p00-0h2h3------| (x2)
G|-1p000-1p001p000--1p000-1p001p00-0h2h3------|
C|-1p000-1p001p000--1p000-1p001p00-0h2h3------|

Chorus: 2 Guitars
D|-------------------------------------|
A|-------------------------------------|
F|-------------------------------------|
C|-000-0-000-3h20h2--888-8-8333-3-3----|
G|-000-0-000-3h20h2--888-8-8333-3-3----|
C|-000-0-000-3h20h2--888-8-8333-3-3----|

D|--------------------------------------------|
A|--------------------------------------------|
F|--------------------------------------------|
C|-000-0-000-3h20h2--8888-8-8-0h3330h222------|
G|-000-0-000-3h20h2--8888-8-8-0h3330h222------|
C|-000-0-000-3h20h2--8888-8-8-0h3330h222------|

D|-------------------------------------|
A|-------------------------------------|
F|-------------------------------------|
C|-000-0-000-3h20h2--888-8-8333-3-3----|
G|-000-0-000-3h20h2--888-8-8333-3-3----|
C|-000-0-000-3h20h2--888-8-8333-3-3----|

D|-------------------------------------|
A|-------------------------------------|
F|-------------------------------------|
C|-000-0-000-3h20h2--888-8-83333322----| (x2)
G|-000-0-000-3h20h2--888-8-83333322----|
C|-000-0-000-3h20h2--888-8-83333322----|

Guitar 2:
D|---------------------------------------------------------|
A|---------------------------------------------------------|
F|-14141414141414141414141414/1212121212121212-------------|
C|-X-X-X-X-X-X-X-X-X-X-X-X-X-/X-X-X-X-X-X-X-X--------------|  (x2)
G|-12121212121212121212121212/1010101010101010-------------|
C|---------------------------------------------------------|

D|---------------------------------------------|
A|---------------------------------------------|
F|-5/777777777777777/1010101010101010\99999999-|
C|-x/-xxxxxxxxxxxxxx/x-x-x-x-x-x-x-x-\xxxxxxxx-| (x2)
G|-3/555555555555555/8-8-8-8-8-8-8-8-\77777777-|
C|---------------------------------------------| 

Outro:
D|---------------------------------------------|
A|---------------------------------------------|  
F|---------------------------------------------|
C|-1p000-1p001p000--1p000-1p001p00-0h2h3------| 
G|-1p000-1p001p000--1p000-1p001p00-0h2h3------|
C|-1p000-1p001p000--1p000-1p001p00-0h2h3------|
Comments