Mudvayne - Forget To Remember Chords & Tabs

 

Forget To Remember Chords & Tabs

Mudvayne Chords & Tabs

Version: 4 Type: Tab 0 ratings
1 star 2 stars 3 stars 4 stars 5 stars
comments

Forget To Remember Tab

   
Mudvayne - Forget To Remember
Album: Lost And Found
Tabbed by: SamTMFM
Tuning: Drop D (Tund Down One Whole Step)
Email: SamTMFM@aol.com

Intro: 2 guitars
Guitar 1:
D|------------------------------------|
A|------------------------------------|
F|------------------------------------|
C|-0000-0-0000-302h38888-8-8-3333-3-3-|
G|-0000-0-0000-302h38888-8-8-3333-3-3-|
C|-0000-0-0000-302h38888-8-8-3333-3-3-|

D|---------------------------------------|
A|---------------------------------------|
F|---------------------------------------|
C|-0000-0-0000-302h3-8888-8-8-33333\222--|
G|-0000-0-0000-302h3-8888-8-8-33333\222--|
C|-0000-0-0000-302h3-8888-8-8-33333\222--|

D|-------------------------------------|
A|-------------------------------------|
F|-------------------------------------|
C|-0000-0-0000-302h3-8888-8-8-3333-3-3-|
G|-0000-0-0000-302h3-8888-8-8-3333-3-3-|
C|-0000-0-0000-302h3-8888-8-8-3333-3-3-| 

D|-----------------------------------|
A|-----------------------------------|
F|-----------------------------------|
C|-0000-0-0000-302h3-8888-8-8-3333/2-|
G|-0000-0-0000-302h3-8888-8-8-3333/2-|
C|-0000-0-0000-302h3-8888-8-8-3333/2-|  

Guitar 2:
D|-------------------------------------------------------------------|
A|-------------------------------------------------------------------|
F|-14141414141414141414141414141414141414141414141414141414/12121212-|
C|-xxxxxxxxxxxxxxxxxxxxxxxxxxxxxxxxxxxxxxxxxxxxxxxxxxxxxxxx/xxxxxxxx-|
G|-12121212121212121212121212121212121212121212121212121212/10101010-|
C|-------------------------------------------------------------------|
[ Tab from: http://www.guitartabs.cc/tabs/m/mudvayne/forget_to_remember_tab_ver_4.html ]
Verse:
D|-------------------------------------------------|
A|-------------------------------------------------|
F|-------------------------------------------------|
C|-------------------------------------------------|
G|-------------17----------------17----------17----|
C|-15-15-15-15----15-15-15-15-15----15-15-15----15-|

D|--------------------------------------------------|
A|--------------------------------------------------|
F|--------------------------------------------------|
C|--------------------------------------------------|
G|-------------15-------------15--------------------|
C|-12-12-12-12----12-12-12-12----17-15-0-14-0-14/15-| 

Interlude:
D|---------------------------------------------|
A|---------------------------------------------|
F|-5/777777777777777/1010101010101010\99999999-|
C|-x-xxxxxxxxxxxxxxx/x-x-x-x-x-x-x-x-\xxxxxxxx-|
G|-3/555555555555555/8-8-8-8-8-8-8-8-\77777777-|
C|---------------------------------------------| 

Break:
D|-----------------|---------------------------------------------|
A|-----------------|---------------------------------------------|
F|-----------------|---------------------------------------------|
C|-----------------|-1p000-1p001p000--1p000-1p001p00-0h2h3------|
G|-----------------|-1p000-1p001p000--1p000-1p001p00-0h2h3------|
C|-1p000-1p001p000-|-1p000-1p001p000--1p000-1p001p00-0h2h3------|

Outro:
D|-----------------------------------------|
A|-----------------------------------------|
F|-----------------------------------------|
C|-1p000-1p001p000---1p000--1p001p00-0h2h3-|
G|-1p000-1p001p000---1p000--1p001p00-0h2h3-|
C|-1p000-1p001p000---1p000--1p001p00-0h2h3-|

Enjoy!!!!

If you have any comments, questions, or corrections.... please email me.
Thanks, Sam \TMFM
Comments