Mudvayne - Forget To Remember Chords & Tabs

 

Forget To Remember Chords & Tabs

Mudvayne Chords & Tabs

Version: 3 Type: Tab 0 ratings
1 star 2 stars 3 stars 4 stars 5 stars
comments

Forget To Remember Tab

Forget To Remember

by: Mudvayne
Tuning: CGCFAD
Transcribed by: SolidRuler21

h-hammer
P-palm muted
/-slide
.-short

(Intro/Chorus)
-------------------------------------|
-------------------------------------|
-------------------------------------|
-------------------------------------|
--0------3-2-0-2--8------3-----------|
--0-(9x)-3-2-0-2--8-(6x)-3-(6x)------|


--------------------------------------|
--------------------------------------|
--------------------------------------|
--------------------------------------|
--0------3-2-0-2--8------3------2-----|
--0-(9x)-3-2-0-2--8-(6x)-3-(4x)-2-----|(4x)


-------------------------------------|
-------------------------------------|
-------------------------------------|
-------------------------------------|
--0------3-2-0-2--8------3-----------|
--0-(9x)-3-2-0-2--8-(6x)-3-(6x)------|


-------------------------------------|
-------------------------------------|
-------------------------------------|
-------------------------------------|
--0------3-2-0-2--8------3-----------|
--0-(9x)-3-2-0-2--8-(6x)-3-(6x)------|


(Verse)(x8)
-------------------------------------|
-------------------------------------|
---------7--------------7--------7---|
-------------------------------------|
-8-8-8-8----8-8-8-8-8-8--8-8-8-------|
-------------------------------------|
 P P P P .  P P P P P P .P P P  .

-------------------------------------|
-------------------------------------|
---------5--------5------------------|
-------------------------------------|
-5-5-5-5---5-5-5---------------------|
-------------------------------------|
 P P P P . P P P  .

-------------------------------------|
-------------------------------------|
-------------------------------------|
7---5---0----------------------------|
-----------7-----7------8------------|
--------------0-----0----------------|
              P     P
[ Tab from: http://www.guitartabs.cc/tabs/m/mudvayne/forget_to_remember_tab_ver_3.html ]
(Chorus)

(Verse)


(Interlude)(x2)
----------------------------------|
----------------------------------|
-6/7--10---9--6/7----10----5------|
-x/x---x---x--x/x-----x----x------|
-4/5---8---7--4/5-----8----3------|
----------------------------------|


(Bridge)
----------------------------------|
----------------------------------|
----------------------------------|
----------------------------------|
----------------------------------|
-3h2-0-0--0-0-0-3h2-0-0-----------|
 P P P P  P P P P P P P

----------------------------------|
----------------------------------|
----------------------------------|
-3h2-0-0--0-0-0-3h2-0-0-----------|
-3h2-0-0--0-0-0-3h2-0-0-----------|
-3h2-0-0--0-0-0-3h2-0-0-----------|


----------------------------------|
----------------------------------|
----------------------------------|
-3h2-0-0--0-0-0-3h2-0---0-1-3-----|
-3h2-0-0--0-0-0-3h2-0---0-1-3-----|
-3h2-0-0--0-0-0-3h2-0---0-1-3-----|


----------------------------------|
----------------------------------|
----------------------------------|
-3h2-0-0--0-0-0-3h2-0-0-----------|
-3h2-0-0--0-0-0-3h2-0-0-----------|
-3h2-0-0--0-0-0-3h2-0-0-----------|


----------------------------------|
----------------------------------|
----------------------------------|
-3h2-0-0--0-0-0-3h2-0--0-1-3------|
-3h2-0-0--0-0-0-3h2-0--0-1-3------|
-3h2-0-0--0-0-0-3h2-0--0-1-3------|


(Chorus)


----------------------------------|
----------------------------------|
----------------------------------|
-3h2-0-0--0-0-0-3h2-0-0-----------|
-3h2-0-0--0-0-0-3h2-0-0-----------|
-3h2-0-0--0-0-0-3h2-0-0-----------|


----------------------------------|
----------------------------------|
----------------------------------|
-3h2-0-0--0-0-0-3h2-0--0-1-3------|
-3h2-0-0--0-0-0-3h2-0--0-1-3------|
-3h2-0-0--0-0-0-3h2-0--0-1-3------|

Any comments or questions? please email me at songoku79@juno.com
Comments