Mudvayne - Forget To Remember Chords & Tabs

 

Forget To Remember Chords & Tabs

Mudvayne Chords & Tabs

Version: 2 Type: Tab 0 ratings
1 star 2 stars 3 stars 4 stars 5 stars
comments

Forget To Remember Tab

Band- Mudvayne
Song- Forget To Remeber

Intro:

  guitar i
|----------------------------------------------------------|
|----------------------------------------------------------|
|----------------------------------------------------------|
|----------------------------------------------------------|
|-0-0-0-0--0--0-0-0-0--3-2-0-3-5-5-5-5--5--5-3-3-3-3--3--2-| 
|-0-0-0-0--0--0-0-0-0--3-2-0-3-5-5-5-5--5--5-3-3-3-3--3--2-| 

|----------------------------------------------------------|
|----------------------------------------------------------|
|----------------------------------------------------------|
|----------------------------------------------------------|
|-0-0-0-0--0--0-0-0-0--3-2-0-3-5-5-5-5--5--5-3-3-3-3--3--2-| x2
|-0-0-0-0--0--0-0-0-0--3-2-0-3-5-5-5-5--5--5-3-3-3-3--3--2-| 

 guitar ii (come in after second time)
|----------------------------------------------------------|
|----------------------------------------------------------|
|-14-14-14-14-14-14-14-14-14-14-14-14-14-14-14-14-14-12-12-|
|----------------------------------------------------------|
|-12-12-12-12-12-12-12-12-12-12-12-12-12-12-12-12-12-10-10-| x2
|----------------------------------------------------------|


Verse 1(there is a chorus and reverb effect):
|-----------------------------------------------------------------|
|-----------------------------------------------------------------|
|---------9-----------9-------9-----------7-------7---------------|
|-----------------------------------------------------------------|
|-7-7-7-7---7-7-7-7-7---7-7-7---7-5-5-5-5---5-5-5---5-3---0---3-5-| x9
|-------------------------------------------------------0---0-----|


Chorus 1:

  guitar i
|----------------------------------------------------------|
|----------------------------------------------------------|
|----------------------------------------------------------|
|----------------------------------------------------------|
|-0-0-0-0--0--0-0-0-0--3-2-0-3-5-5-5-5--5--5-3-3-3-3--3--2-| 
|-0-0-0-0--0--0-0-0-0--3-2-0-3-5-5-5-5--5--5-3-3-3-3--3--2-| 

|----------------------------------------------------------|
|----------------------------------------------------------|
|----------------------------------------------------------|
|----------------------------------------------------------|
|-0-0-0-0--0--0-0-0-0--3-2-0-3-5-5-5-5--5--5-3-3-3-3--3--2-| x2
|-0-0-0-0--0--0-0-0-0--3-2-0-3-5-5-5-5--5--5-3-3-3-3--3--2-| 
[ Tab from: http://www.guitartabs.cc/tabs/m/mudvayne/forget_to_remember_tab_ver_2.html ]
 guitar ii 
|----------------------------------------------------------|
|----------------------------------------------------------|
|-14-14-14-14-14-14-14-14-14-14-14-14-14-14-14-14-14-12-12-|
|----------------------------------------------------------|
|-12-12-12-12-12-12-12-12-12-12-12-12-12-12-12-12-12-10-10-| x4
|----------------------------------------------------------|


Verse 2: play Verse 1 6x


Chorus 2: same as Chorus 1


Interlude 1:
|---------------------------------------------------------|
|---------------------------------------------------------|
|-6/7-7-7-7-7-7-7-7-7-7-7-7-7-7-7-7-7-7-7-7-7-7-7-7-7-7-7-|
|---------------------------------------------------------|
|-4/5-5-5-5-5-5-5-5-5-5-5-5-5-5-5-5-5-5-5-5-5-5-5-5-5-5-5-|
|---------------------------------------------------------|

|---------------------------------------------------------------------|
|---------------------------------------------------------------------|
|10-10-10-10-10-10-10-10-10-10-10-10-10-9-9-9-9-9-9-9-9-9-9-9-9-9-9-9-|
|---------------------------------------------------------------------|
|-8--8--8--8--8--8--8--8--8--8--8--8--8-7-7-7-7-7-7-7-7-7-7-7-7-7-7-7-|
|---------------------------------------------------------------------|

|---------------------------------------------------------|
|---------------------------------------------------------|
|-6/7-7-7-7-7-7-7-7-7-7-7-7-7-7-7-7-7-7-7-7-7-7-7-7-7-7-7-|
|---------------------------------------------------------|
|-4/5-5-5-5-5-5-5-5-5-5-5-5-5-5-5-5-5-5-5-5-5-5-5-5-5-5-5-|
|---------------------------------------------------------|

|---------------------------------------------------------------------|
|---------------------------------------------------------------------|
|10-10-10-10-10-10-10-10-10-10-10-10-10-5-5-5-5-5-5-5-5-5-5-5-5-5-5-5-|
|---------------------------------------------------------------------|
|-8--8--8--8--8--8--8--8--8--8--8--8--8-3-3-3-3-3-3-3-3-3-3-3-3-3-3-3-| x2
|---------------------------------------------------------------------|


Interlude 2:
|---------------------------|
|---------------------------|
|---------------------------|
|---------------------------|
|---------------------------|
|-3-2-0-0----0-0-0-3-2-0-0--|
PM...........................

|---------------------------|
|---------------------------|
|---------------------------|
|---------------------------|
|-3-2-0-0----0-0-0-3-2-0-0--|
|-3-2-0-0----0-0-0-3-2-0-0--|

|----------------------------------|
|----------------------------------|
|----------------------------------|
|----------------------------------|
|-3-2-0-0----0-0-0-3-2-0-0-2-3-2-0-| x2
|-3-2-0-0----0-0-0-3-2-0-0-2-3-2-0-|


play Chorus

play Chorus with guitar ii playing Interlude 1

play Interlude 2
Comments