Mudvayne - Forget To Remember Chords & Tabs

 

Forget To Remember Chords & Tabs

Mudvayne Chords & Tabs

Version: 2 Type: Bass Tab

Forget To Remember Bass Tab

   
Mudvayne - Forget To Remember

tuning (low to high) - G C G C F

Riff 1 x1
   ssssSsSssssS  ssss   ssssSsSssssss sss   ssssSsSssssS  ssss   ssssSsSssssss sss
|---------------------|-------------------|--------------------|-------------------|
|---------------------|-------------------|--------------------|-------------------|
|4------------------0-|-1111-1-1----------|------------------0-|-1111-1-1----------|
|4-0000-0-0000-2h320--|---------33333/553-|-0000-0-0000-2h320--|---------33333p222-|
|---------------------|-------------------|--------------------|-------------------|

Fill 1 x1
  ssssSsSssssS  ssss   ssssSsSssssss sss   ssssSsSssssS  ssss   ssssSsSssssss s E
|--------------------|-------------------|--------------------|------------------|
|--------------------|-------------------|--------------------|------------------|
|------------------0-|-1111-1-1----------|------------------0-|-1111-1-1---------|
|-0000-0-0000-2h320--|---------33333/553-|-0000-0-0000-2h320--|---------33333/5--|
|--------------------|-------------------|--------------------|------------------|

Rest for 4 bars in 4/4

Riff 2A x1
   h    q.  e    s  e. q     q    s  s e      h    q.  s s    s  e. q     e.  s s e.
|--------------|---------------------------|----------------|--------------------------|
|--------------|---------------------------|----------------|-------------------17-----|
|-----------12-|-12h13----13h15--(13)X-19\-|-----------12---|-12h13----13h15--15--15\--|
|-/12----------|---------------------------|-/12---------12-|--------------------------|
|--------------|---------------------------|----------------|--------------------------|

   q   s ss   e.  e  s s  e    e. ss e  s e.  s s  s e       q   e  s   e  se  se.
|----------------------------|--------------------------|---------------------------|
|----------------------------|--------------------------|---------------------------|
|------12-X12h13--12-1212----|-8--88h10-10--------------|--------12--12h13-X12-X12--|
|-/12----X----------------12-|------------10--10-----10-|-10h12-----X---------------|
|----------------------------|------------------10h12---|---------------------------|

 S  e ss e. e.  s s s s s    q   e  s    e.  e  s s  e    S  e sss  e e.  s s  s e
|--------------------------|-----------------------------|--------------------------|
|------10------------------|-----------------------------|--------------------------|
|--/8-8--8------10--10-----|-----12---12h13--12-1212-12\-|--/8-8810-8---------------|
|-----------10----10--1011-|-12-----12-------------------|------------10--10-----10-|
|--------------------------|-----------------------------|------------------10h12---|

  s  e.  e s   s Ss   e  s s  e    S  e ss e se  e  s s s s
|---------------------------------|--------------------------|
|---------------------------------|------10------------------|
|--------12-12h13-X13h15-1313-12\-|--/8-8--8-X---10---10-----|
|-10h12----X----------------------|-----------10----10--1011-|
|---------------------------------|--------------------------|

Riff 1 x2
[ Tab from: http://www.guitartabs.cc/tabs/m/mudvayne/forget_to_remember_btab_ver_2.html ]
Riff 2B x1
  h.      e  s s       h        q   ss e      h.      s s s s       q.   e  s s e  s se
|-----------------|------------------------|-------------------|--------------------------|
|-----------------|------------------------|-------------------|--------------17---17-----|
|------------12---|-12h13----13h15---------|------------12--12-|-12h13---13h15--15---X----|
|-0------/12---12-|------------------X-19\-|-/12------12--12---|----------------------17\-|
|-----------------|------------------------|-------------------|--------------------------|

   q   s s s   e.  e  s s  e    e. sss e e.  s s  s e    s  e.  e  s   e  s e  se  s
|-----------------------------|------------------------|-----------------------------|
|-----------------------------|------------------------|-----------------------------|
|------12--X12h13--12-1212----|-8--88108---------------|--------12--12h13-X-12-X12-\-|
|-/12----12----------------12-|----------10--10-----10-|-10h12-----X-----------------|
|-----------------------------|----------------10h12---|-----------------------------|





 S  e ss s e s ss s s s s s    q   e  s   e.  e  s s  e    S  sssss  e s s s s s  s e
|----------------------------|----------------------------|----------------------------|
|------10--------------------|----------------------------|----------------------------|
|--/8-8--8-8---X----10-------|-----12--12h13--12-1212-----|--/888810-8-----------------|
|------------10-1010--101011-|-12-----X---------------12\-|------------10101010-----10-|
|----------------------------|----------------------------|--------------------10h12---|

  s  e.  e  ss Ss   e  s s  e    S  e ss sss e e   s s s s
|-------------------------------|---------------------------|
|-------------------------------|------10-------------------|
|--------12--13-X13h15-1313-12\-|--/8-8--8XX----10---10-----|
|-10h12-----X-------------------|------------10----10--1011-|
|-------------------------------|---------------------------|

Riff 1 x2

Riff 3 x1
  q  ssse s  e sse   e. ss sse. sssse   q  ssse s  e sse   e. ssss  e ssssse 
|------------------|------------------|------------------|-------------------|
|------------------|------------------|------------------|----3-3-----5------|
|----5-57-77h8-770-|-1--11h33---------|----5-57-77h8-770-|-1---1-11h3--3-----|
|-0---0------------|---------3--X0232-|-0---0------------|--------------0332-|
|------------------|------------------|------------------|-------------------|

  q  ssse s  e sse   e. ss sse. sssse   q  ssse s s s s s  e    e. ssss  e ssssse
|------------------|------------------|-----------------------|-------------------|
|------------------|------------------|-----------------------|----3-3-----5------|
|----5-57-77h8-770-|-1--11h33---------|----5-57-7/12121010-8\-|-1---1-11h3--3-----|
|-0---0------------|---------3--X0232-|-0---0-----------------|--------------0332-|
|------------------|------------------|-----------------------|-------------------|

Rest for 1 bar in 4/4

Riff 4 x2
  s sssSsssssssQ    s sssSsssssssss e
|-----------------|-------------------|
|-1p000-1001000---|-1p000-100100012-3-|
|-----------------|-------------------|
|-1p000-1001000---|-1p000-100100012-3-|
|-----------------|-------------------|

Riff 1 x2

Riff 3 x1

Riff 4 x1