Mudvayne - Forget To Remeber Chords & Tabs

 

Forget To Remeber Chords & Tabs

Mudvayne Chords & Tabs

Version: 1 Type: Tab 0 ratings
1 star 2 stars 3 stars 4 stars 5 stars
comments

Forget To Remeber Tab

   
Artist: Mudvayne
Song: Forget to Remeber
Album: Lost and Found
Tabbed by: Camren Braley
E-mail: syco_holiday@hotmail.com

Tunning: Drop C (C G C F A d)

Intro/Chorus (guitar 1)
|---------------------------------------|
|---------------------------------------|
|---------------------------------------|
|---------------------3333-3-3----------|
|-0000-0-0000-3-2-0-2-1111-1-1-3333-3-3-|
|-0000-0-0000-3-2-0-2----------3333-3-3-|

|----------------------------------------|
|----------------------------------------|
|----------------------------------------|4X
|---------------------3333-3-3-----------|
|-0000-0-0000-3-2-0-2-1111-1-1-3333\2222-|
|-0000-0-0000-3-2-0-2----------3333\2222-|
|
|
|enter 2nd time (guitar 2)
|--------------------------------------|
|--------------------------------------|
|-14141414141414141414141414\121212/14-|
|--x-x-x-x-x-x-x-x-x-x-x-x-x\-x-x-x/-x-|2X
|-12121212121212121212121212\101010/12-|
|--------------------------------------|

[ Tab from: http://www.guitartabs.cc/tabs/m/mudvayne/forget_to_remeber_tab.html ]
Verse (guitar 1)
|------------------------------------------------------------------------|
|------------------------------------------------------------------------|
|------------------------------------------------------------------------|
|------------------------------------------------------------------------|
|----------17----------17------17----------15------15-13-----------------|
|-15151515----15151515----1515----12121212----1212-------15-0-13-0-13/15-|

Chorus

Verse

Bridge (guitar 1)
|----------------------------------------------|
|----------------------------------------------|
|-5/7777777777777777-1010101010101010-99999999-|
|-x/xxxxxxxxxxxxxxxx--x-x-x-x-x-x-x-x-xxxxxxxx-|
|-3/5555555555555555--8-8-8-8-8-8-8-8-77777777-|
|----------------------------------------------|

|----------------------------------------------|
|----------------------------------------------|
|-5/7777777777777777-1010101010101010-55555555-|
|-x/xxxxxxxxxxxxxxxx--x-x-x-x-x-x-x-x-xxxxxxxx-|
|-3/5555555555555555--8-8-8-8-8-8-8-8-33333333-|
|----------------------------------------------|

Bridge 2 (guitar 1)
|---------------|----------------------------------|
|---------------|----------------------------------|
|---------------|----------------------------------|
|---------------|----------------------------------|
|---------------|-3200-320-3200-3200-320-3200-3203-|
|-3200-320-3200-|-3200-320-3200-3200-320-3200-3203-|

Chorus

Bridge 2

im pretty sure most of this is right but if u make corrections, please email me at syco_ho
Comments