Mudvayne - Fall Into Sleep Chords & Tabs

 

Fall Into Sleep Chords & Tabs

Mudvayne Chords & Tabs

Version: 3 Type: Tab 0 ratings
1 star 2 stars 3 stars 4 stars 5 stars
comments

Fall Into Sleep Tab

Tuning - Drop C (CGCFAD)

Intro:
|-------------------|
|-------------------|
|-------------------|
|-------------------|
|-3h5-5-5-5-5-5-5-5-|
|-0---0-0-0-0-0-0-0-|


Verse:
|--------------------------------------------|
|--------------------------------------------|
|--------------------------------------------|
|--------------------------------------------|
|---14-16---16---------14-16---16---16h17p16-| play 3x
|-0~ -----0~ ----0-0-0~ -----0~ --0----------|
PM               ...
|-----------------------------------|
|-----------------------------------|
|-----------------------------------|
|-----------------------------------|
|---14-16-19--19-----12-14----14-16-|
|-0~ -------------0~ ------0~ ------|

[ Tab from: http://www.guitartabs.cc/tabs/m/mudvayne/fall_into_sleep_tab_ver_3.html ]
Chorus:
|-------------------------------------------------------|
|-------------------------------------------------------|
|----------------10-9-7-9-10-7--------------------------|
|-------------7~ -x-x-x-x--x-x--------------10~ -10-----|
|-3-3-3-3-3-3-7~ -8-7-5-7--8-5--3-3-3-3-3-3--8~ --8-000-|
|-3-3-3-3-3-3-7~ ---------------3-3-3-3-3-3--8~ --8-000-|

|----------------------------------------------------------------|
|----------------------------------------------------------------|
|----------------10-9-7-9-10-7-----------------------------------|
|-------------7~ -x-x-x-x--x-x--10-10-10-9-9-9-5-5-5-7-7-7-5-5-5-|
|-3-3-3-3-3-3-7~ -8-7-5-7--8-5---8--8--8-7-7-7-3-3-3-5-5-5-2-2-2-|
|-3-3-3-3-3-3-7~ ----------------8--8--8-7-7-7-3-3-3-5-5-5-2-2-2-|


Outro:
|-------------------|
|-------------------|
|-------------------|
|-------------------|
|-3h5-5-5-5-5-5-5-5-| play 5x
|-0---0-0-0-0-0-0-0-|

|-----------------------------------|
|-----------------------------------|
|-----------------------------------|
|-----------------------------------|
|---14-16-19--19-----12-14----14-16-|
|-0~ -------------0~ ------0~ ------|
Comments