Mudvayne - Fall Into Sleep Chords & Tabs

 

Fall Into Sleep Chords & Tabs

Mudvayne Chords & Tabs

Version: 2 Type: Tab 0 ratings
1 star 2 stars 3 stars 4 stars 5 stars
comments

Fall Into Sleep Tab

   
-----------------------------------------------------------------------------
                      Fall into Sleep - Mudvayne
-----------------------------------------------------------------------------
Tabbed by: Dallas B.
Email: bigbro1116@wmconnect.com

Tuning: Drop D

Intro:
e|--------------|--------------|--------------|--------------|--------------|
B|--------------|--------------|--------------|--------------|--------------|
G|--------------|--------------|--------------|--------------|--------------|
D|-8h10-10-10-10|--10-10-10-10-|-8h10-10-10-10|--10-10-10-10-|-8h10-10-10-10|
A|-8h10-10-10-10|--10-10-10-10-|-8h10-10-10-10|--10-10-10-10-|-8h10-10-10-10|
D|-8h10-10-10-10|--10-10-10-10-|-8h10-10-10-10|--10-10-10-10-|-8h10-10-10-10|

                                              |Add Bass here:|
e|--------------|--------------|--------------|--------------|
B|--------------|--------------|--------------|--------------|
G|--------------|--------------|--------------|--------------|
D|--10-10-10-10-|-8h10-10-10-10|--10-10-10-10-|-8h10-10-10---|
A|--10-10-10-10-|-8h10-10-10-10|--10-10-10-10-|--------------|
D|--10-10-10-10-|-8h10-10-10-10|--10-10-10-10-|--------------|

e|--------------------|---------------|--------------------|---------------|
B|--------------------|---------------|--------------------|---------------|
G|--------------------|---------------|--------------------|---------------|
D|-8h10-10-10h11h10-8-|8h10-10-10-----|-8h10-10-10h11h10-8-|-8h10-10-10----|
A|--------------------|---------------|--------------------|---------------|
D|--------------------|---------------|--------------------|---------------|

e|--------------------|-------------------|------------------------|
B|--------------------|-------------------|------------------------|
G|--------------------|-------------------|------------------------|
D|-8h10-10-10h11h10-8-|-------10----13-13\|----8--------10---------|
A|--------------------|----10----10-------|--6---6----8----8----11-|
D|--------------------|-10----------------|6--------8--------10----|

e|--------------|--------------------|--------------|--------------------|
B|--------------|--------------------|--------------|--------------------|
G|--------------|--------------------|--------------|--------------------|
D|-8h10-10-10---|-8h10-10-10h11h10-8-|-8h10-10-10---|-8h10-10-10h11h10-8-|
A|--------------|--------------------|--------------|--------------------|
D|--------------|--------------------|--------------|--------------------|

e|---------------|--------------------|-------------------|-----------------|
B|---------------|--------------------|-------------------|-----------------|
G|---------------|--------------------|-------------------|-----------------|
D|-8h10-10-10----|-8h10-10-10h11h10-8-|-------10----13-13\|----8-------10---|
A|---------------|--------------------|----10----10-------|--6---6---8----8-|
D|---------------|--------------------|-10----------------|6-------8--------|

Pre Chorus:
e|--------------|--------------|--------------|--------------|--------------|
B|--------------|--------------|--------------|--------------|--------------|
G|--------------|--------------|--------------|--------------|--------------|
D|-8h10-10-10-10|--10-10-10-10-|-8h10-10-10-10|--10-10-10-10-|-8h10-10-10-10|
A|-8h10-10-10-10|--10-10-10-10-|-8h10-10-10-10|--10-10-10-10-|-8h10-10-10-10|
D|-8h10-10-10-10|--10-10-10-10-|-8h10-10-10-10|--10-10-10-10-|-8h10-10-10-10|

e|--------------|---------------|------------|
B|--------------|---------------|------------|
G|--------------|---------------|------------|
D|--10-10-10-10-|-8h10-10-10-10-|10-10-10-~~-|
A|--10-10-10-10-|-8h10-10-10-10-|10-10-10-~~-|
D|--10-10-10-10-|-8h10-10-10-10-|10-10-10-~~-|

Chorus:
e|------------------------|-------------------|------------------|
B|------------------------|-------------------|------------------|
G|------------------------|-------------------|------------------|
D|-10-10-10-10-10-10-10---|-13-12-10-12-13-11-|-8-8-8-8-8-8-8-10-|
A|-10-10-10-10-10-10-10---|-13-12-10-12-13-11-|-8-8-8-8-8-8-8-10-|
D|-10-10-10-10-10-10-10---|-13-12-10-12-13-11-|-8-8-8-8-8-8-8-10-|

e|----------|------------------------|-------------------|
B|----------|------------------------|-------------------|
G|----------|------------------------|-------------------|
D|101010\---|-10-10-10-10-10-10-11---|-13-12-10-12-13-11-|
A|101010\---|-10-10-10-10-10-10-11---|-13-12-10-12-13-11-|
D|101010\---|-10-10-10-10-10-10-11---|-13-12-10-12-13-11-|

e|------------------------|-------------------|-----------------------------|
B|------------------------|-------------------|-----------------------------|
G|------------------------|-------------------|-----------------------------|
D|-10-10-10-10-10-10-11---|-13-12-10-12-13-11-|-10-10-10-10-10-10-11--------|
A|-10-10-10-10-10-10-11---|-13-12-10-12-13-11-|-10-10-10-10-10-10-11--------|
D|-10-10-10-10-10-10-11---|-13-12-10-12-13-11-|-10-10-10-10-10-10-11--------|

e|-------|
B|-------|
G|-------|
D|101010-|
A|101010-|
D|101010-|

e|------------------------|-------------------|-----------------------------|
B|------------------------|-------------------|-----------------------------|
G|------------------------|-------------------|-----------------------------|
D|-10-10-10-10-10-10-11---|-13-12-10-12-13-11-|-10-10-10-10-10-10-11--------|
A|-10-10-10-10-10-10-11---|-13-12-10-12-13-11-|-10-10-10-10-10-10-11--------|
D|-10-10-10-10-10-10-11---|-13-12-10-12-13-11-|-10-10-10-10-10-10-11--------|

e|-------|
B|-------|
G|-------|
D|101010-|
A|101010-|
D|101010-|
[ Tab from: http://www.guitartabs.cc/tabs/m/mudvayne/fall_into_sleep_tab_ver_2.html ]
Verse:
e|--------------|--------------------|--------------|--------------------|
B|--------------|--------------------|--------------|--------------------|
G|--------------|--------------------|--------------|--------------------|
D|-8h10-10-10---|-8h10-10-10h11h10-8-|-8h10-10-10---|-8h10-10-10h11h10-8-|
A|-8h10-10-10---|-8h10-10------------|-8h10-10-10---|-8h10-10------------|
D|-8h10-10-10---|-8h10-10------------|-8h10-10-10---|-8h10-10------------|
   . .  .  .      . .  .               . .  .  .      . . .
e|---------------|--------------------|---------------------------|
B|---------------|--------------------|---------------------------|
G|---------------|--------------------|---------------------------|
D|-8h10-10-10----|-8h10-10-10h11h10-8-|-------10----13-13\---8----|
A|---------------|--------------------|----10----10--------6---6--|
D|---------------|--------------------|-10---------------6--------|

e|-----------------------------|
B|-----------------------------|
G|-----------------------------|
D|-----10--------8h10-10-10-10-|
A|---8----8----11--------------|
D|-8--------10-----------------|

Chorus:
e|------------------------|-------------------|-----------------------------|
B|------------------------|-------------------|-----------------------------|
G|------------------------|-------------------|-----------------------------|
D|-10-10-10-10-10-10-11---|-13-12-10-12-13-11-|-10-10-10-10-10-10-11--------|
A|-10-10-10-10-10-10-11---|-13-12-10-12-13-11-|-10-10-10-10-10-10-11--------|
D|-10-10-10-10-10-10-11---|-13-12-10-12-13-11-|-10-10-10-10-10-10-11--------|

e|-------|
B|-------|
G|-------|
D|101010-|
A|101010-|
D|101010-|

e|------------------------|-------------------|-----------------------------|
B|------------------------|-------------------|-----------------------------|
G|------------------------|-------------------|-----------------------------|
D|-10-10-10-10-10-10-11---|-13-12-10-12-13-11-|-10-10-10-10-10-10-11--------|
A|-10-10-10-10-10-10-11---|-13-12-10-12-13-11-|-10-10-10-10-10-10-11--------|
D|-10-10-10-10-10-10-11---|-13-12-10-12-13-11-|-10-10-10-10-10-10-11--------|

e|-------|
B|-------|
G|-------|
D|101010-|
A|101010-|
D|101010-|

Bridge:
e|--------------|ŻŻ\---|Ż|--------/ŻŻŻ\-------------------------------------|
B|--------------|   \--| |-------/ /-\ \------------------------------------|
G|--------------| |\ \-| |------/ /___\ \-----------------------------------|
D|--------------| |-\ \| |-----/ _______ \----------------------------------|
A|--------------| |--\ | |----/ /-------\ \---------------------------------|
D|--------------|_|---\__|---/_/---------\ \--------------------------------|

Post Outro:
e|--------------|--------------|--------------|--------------|--------------|
B|--------------|--------------|--------------|--------------|--------------|
G|--------------|--------------|--------------|--------------|--------------|
D|-8h10-10-10-10|--10-10-10-10-|-8h10-10-10-10|--10-10-10-10-|-8h10-10-10-10|
A|-8h10-10-10-10|--10-10-10-10-|-8h10-10-10-10|--10-10-10-10-|-8h10-10-10-10|
D|-8h10-10-10-10|--10-10-10-10-|-8h10-10-10-10|--10-10-10-10-|-8h10-10-10-10|

e|--------------|---------------|------------|
B|--------------|---------------|------------|
G|--------------|---------------|------------|
D|--10-10-10-10-|-8h10-10-10-10-|10-10-10-~~-|
A|--10-10-10-10-|-8h10-10-10-10-|10-10-10-~~-|
D|--10-10-10-10-|-8h10-10-10-10-|10-10-10-~~-|

Chorus:
e|------------------------|-------------------|-----------------------------|
B|------------------------|-------------------|-----------------------------|
G|------------------------|-------------------|-----------------------------|
D|-10-10-10-10-10-10-11---|-13-12-10-12-13-11-|-10-10-10-10-10-10-11--------|
A|-10-10-10-10-10-10-11---|-13-12-10-12-13-11-|-10-10-10-10-10-10-11--------|
D|-10-10-10-10-10-10-11---|-13-12-10-12-13-11-|-10-10-10-10-10-10-11--------|

e|-------|
B|-------|
G|-------|
D|101010-|
A|101010-|
D|101010-|

e|------------------------|-------------------|-----------------------------|
B|------------------------|-------------------|-----------------------------|
G|------------------------|-------------------|-----------------------------|
D|-10-10-10-10-10-10-11---|-13-12-10-12-13-11-|-10-10-10-10-10-10-11--------|
A|-10-10-10-10-10-10-11---|-13-12-10-12-13-11-|-10-10-10-10-10-10-11--------|
D|-10-10-10-10-10-10-11---|-13-12-10-12-13-11-|-10-10-10-10-10-10-11--------|

e|-------|
B|-------|
G|-------|
D|101010-|
A|101010-|
D|101010-|

e|------------------------|-------------------|-----------------------------|
B|------------------------|-------------------|-----------------------------|
G|------------------------|-------------------|-----------------------------|
D|-10-10-10-10-10-10-11---|-13-12-10-12-13-11-|-10-10-10-10-10-10-11--------|
A|-10-10-10-10-10-10-11---|-13-12-10-12-13-11-|-10-10-10-10-10-10-11--------|
D|-10-10-10-10-10-10-11---|-13-12-10-12-13-11-|-10-10-10-10-10-10-11--------|

e|-------|
B|-------|
G|-------|
D|101010-|
A|101010-|
D|101010-|

Outro:
e|--------------|--------------|--------------|--------------|--------------|
B|--------------|--------------|--------------|--------------|--------------|
G|--------------|--------------|--------------|--------------|--------------|
D|-8h10-10-10-10|--10-10-10-10-|-8h10-10-10-10|--10-10-10-10-|-8h10-10-10-10|
A|-8h10-10-10-10|--10-10-10-10-|-8h10-10-10-10|--10-10-10-10-|-8h10-10-10-10|
D|-8h10-10-10-10|--10-10-10-10-|-8h10-10-10-10|--10-10-10-10-|-8h10-10-10-10|

e|--------------|--------------|--------------|--------------|--------------|
B|--------------|--------------|--------------|--------------|--------------|
G|--------------|--------------|--------------|--------------|--------------|
D|--10-10-10-10-|-8h10-10-10~~-|--10-10-10-10-|-8h10-10-10~~-|-8h10-10-10~~-|
A|--10-10-10-10-|-8h10-10-10~~-|--10-10-10-10-|-8h10-10-10~~-|-8h10-10-10~~-|
D|--10-10-10-10-|-8h10-10-10~~-|--10-10-10-10-|-8h10-10-10~~-|-8h10-10-10~~-|

e|-------------------|-------------------------||
B|-------------------|-------------------------||
G|-------------------|-------------------------||
D|-------10----13-13\|----8-------10---10------||
A|----10----10-------|--6---6---8----8-10------||
D|-10----------------|6-------8--------10------||
   Rit.

| .  palm mute
| /  slide up
| \  slide down
| h  hammer-on
| p pull-off
| ~  vibrato
| +  harmonic
| x  Mute note
=============================================================================
Comments