Mudvayne - Fall Into Sleep Chords & Tabs

 

Fall Into Sleep Chords & Tabs

Mudvayne Chords & Tabs

Version: 1 Type: Tab 0 ratings
1 star 2 stars 3 stars 4 stars 5 stars
comments

Fall Into Sleep Tab

   
drop c

-----------------------------|
-----------------------------|
-----------------------------|
------4-4-4-4-4-4-4----------|
--0/2-2-2-2-2-2-2-2----------|
-----------------------------|x3

------------------------------|
------------------------------|
------7-----7-----7---7/8/7---|
----5-----5-----5-------------|
--5-----5-----5-----5---------|
------------------------------|

------------------------------|
------7-----7-----7---7/8/7---|
----5-----5-----5-------------|
--5-----5-----5-----5---------|
------------------------------|

-------------------------------|
-------------------------------|
------7-----7-----7---7/8/7----|
----5-----5-----5--------------|
--5-----5-----5-----5----------|
-------------------------------|
[ Tab from: http://www.guitartabs.cc/tabs/m/mudvayne/fall_into_sleep_tab.html ]
-------------------------------|
-------------------------------|
------5-----5-----3-----3------|
----3-----3-----1-----1--------|
--3-----3-----1-----1----------|
-------------------------------|x2

-------------------------------|
-------------------------------|
---------------5/3/5/7/6-------|
-2222-023-0-7------------------|
-2222-023-0-7--3/2/3/5/4-------|
-2222-023-0-7------------------|

--------------------------------|
--------------------------------|
--------------------------------|
-2222-023-0-7-77-8:-------------|
-2222-023-0-7-77-8:-------------|
-2222-023-0-7-77-8:-----------1-|st ending

-------------------------------|
-------------------------------|
-------------------------------|
-------------------------------|
-------------------------------|
-5555-4444-3333-2222---------2-|nd ending

bridge
-------------------------------|
-------------------------------|
-------------------------------|
-------------------------------|
-------------------------------|
-------------------------------|
Comments