Mudvayne - Fall Into Sleep Chords & Tabs

 

Fall Into Sleep Chords & Tabs

Mudvayne Chords & Tabs

Version: 3 Type: Bass Tab

Fall Into Sleep Bass Tab

   
Artist:MuDvAyNe
Song:Fall Into Sleep
Tabber: JOno 


Gtr I (C G C F) - 'Finger Play'
Gtr II (C G C F) - 'Slap'


 Intro
  Q=74
 4/4
  Gtr I
  Wx4
|--------|
|--------|
|--------|
|--------|


 Verse
  S S S S S S S S S S S  S  S  S  S  S
|--------------------------------------|
|--------------------------------------|
|--------------------------12-12-10-10-|
|-0-0-0-0-0-0-0-0-0-0-0-10-------------|


   S  S  S  S  S  S  S  S  S  S  S S  S  S  S  S
|------------------------------------------------|
|------------------------------------------------|
|-10---------------------------------------------|
|----12-12-12-12-12-12-12-12-12-12-8-10-10-10-12-|


  S S S S S S S S  S  S S  S  S S S S   S S S S S S S S S S S S S S S S
|-------------------------------------|---------------------------------|
|-------------------------------------|---------------------------------|
|-8-5-5-5-5-5-5-----------------------|---------------------------------|
|---------------0-10-12-0-10-12-0-5-7-|-8-8-8-8-8-8-8-6-3-3-3-3-5-5-5-5-|


  S S S S S S S S S S S  S  S  S  S  S
|--------------------------------------|
|--------------------------------------|
|--------------------------12-12-10-10-|
|-0-0-0-0-0-0-0-0-0-0-0-10-------------|


   S  S  S  S  S  S  S  S  S  S  S S  S  S  S  S
|------------------------------------------------|
|------------------------------------------------|
|-10---------------------------------------------|
|----12-12-12-12-12-12-12-12-12-12-8-10-10-10-12-|


  S S S S S S S S  S  S S  S  S S S S   S S S S S S S S S S S S S S S S
|-------------------------------------|---------------------------------|
|-------------------------------------|---------------------------------|
|-8-5-5-5-5-5-5-----------------------|---------------------------------|
|---------------0-10-12-0-10-12-0-5-7-|-8-8-8-8-8-8-8-6-3-3-3-3-5-5-5-5-|


 Pre-Chorus
  W          +W           +W           +W
|----------|------------|------------|--------|
|----------|------------|------------|--------|
|----------|------------|------------|--------|
|-0--------|-(0)--------|-(0)--------|-(0)----|


   Chorus
    Gtr II
    S S S S S S E. S S S S S E   S S S S S S Q.   T T e.
||-----------------------------|-------------------------|
||o----------------------------|-------------------------|
||o-------------5--8-7-5-7-8-5-|-------------3-----------|
||--0-0-0-0-0-0----------------|-3-3-3-3-3-0------3-3-0--|


  S S S S S S E. S S S S S E   S S S S S S  S  S  S S S S S S S S
|----------------------------|-------------------------------------||
|----------------------------|------------------------------------o||
|-------------5--8-7-5-7-8-5-|-8-8-8-7-7-7------------------------o||
|-0-0-0-0-0-0----------------|-------------10-10-10-7-7-7-5-5-3-3--||


 Verse
  Gtr I
   S  S S  S E  S  S S  S  S S  S S  S S
|----------------------------------------|
|----------------------------------------|
|----------------------------------------|
|-12-10-0-10---12-10-0-10-12---12-0-10-8-|


   S  S S  S E  S  S S  S  S S  S S  S S
|----------------------------------------|
|----------------------------------------|
|----------------------------------------|
|-12-10-0-10---12-10-0-10-12---12-0-10-8-|


   S  S S  S E  S  S S  S  S S  S S  S S   S S S S S S S S S S S S S S S S
|----------------------------------------|----------------------------------|
|----------------------------------------|----------------------------------|
|----------------------------------------|----------------------------------|
|-12-10-0-10---12-10-0-10-12---12-0-10-8-|-8-8-8-8-8-8-8-6-3-3-3-3-5-5-5-5--|


  S S S S S S S S S S S  S  S  S  S  S
|--------------------------------------|
|--------------------------------------|
|--------------------------12-12-10-10-|
|-0-0-0-0-0-0-0-0-0-0-0-10-------------|


   S  S  S  S  S  S  S  S  S  S  S S  S  S  S  S
|------------------------------------------------|
|------------------------------------------------|
|-10---------------------------------------------|
|----12-12-12-12-12-12-12-12-12-12-8-10-10-10-12-|


  S S S S S S S S  S  S S  S  S S S S   S S S S S S S S S S S S S S S S
|-------------------------------------|---------------------------------|
|-------------------------------------|---------------------------------|
|-8-5-5-5-5-5-5-----------------------|---------------------------------|
|---------------0-10-12-0-10-12-0-5-7-|-8-8-8-8-8-8-8-6-3-3-3-3-5-5-5-5-|


 Pre-Chorus
  W          +W
|----------|--------|
|----------|--------|
|----------|--------|
|-0--------|-(0)----|

[ Tab from: http://www.guitartabs.cc/tabs/m/mudvayne/fall_into_sleep_btab_ver_3.html ]
   Chorus
    Gtr II
    S S S S S S E. S S S S S E   S S S S S S Q.   T T e.
||-----------------------------|-------------------------|
||o----------------------------|-------------------------|
||o-------------5--8-7-5-7-8-5-|-------------3-----------|
||--0-0-0-0-0-0----------------|-3-3-3-3-3-0------3-3-0--|


  S S S S S S E. S S S S S E   S S S S S S  S  S  S S S S S S S S
|----------------------------|-------------------------------------||
|----------------------------|------------------------------------o||
|-------------5--8-7-5-7-8-5-|-8-8-8-7-7-7------------------------o||
|-0-0-0-0-0-0----------------|-------------10-10-10-7-7-7-5-5-3-3--||


 Bridge
  Gtr I
  S S S S S S S S S S S S S S S S   S S S S S S S S S S S S S S S S
|---------------------------------|---------------------------------|
|---------------------------------|---------------------------------|
|-------8-8-8-------8-8-8-------8-|-------7-7-7-------7-7-7---------|
|-8-0-8-------8-0-8-------7-0-7---|-7-0-7-------7-0-7-------7-0-7-7-|


  S S S S S S S S S S S S S S S S   S S S S S S S S S S S S S S E
|---------------------------------|--------------------------------|
|---------------------------------|-7-7-7-5-5-5--------------------|
|-------------------------3-5-8-5-|-------------8-8-8-7-7-0-5-8-5--|
|-0-0-0-3-3-3-5-5-5-7-7-7---------|--------------------------------|


  S S S S S S S S S S S S S S S S   S S S S S S S S S S S S S S S S
|---------------------------------|---------------------------------|
|---------------------------------|---------------------------------|
|-------8-8-8-------8-8-8-------8-|-------7-7-7-------7-7-7---------|
|-8-0-8-------8-0-8-------7-0-7---|-7-0-7-------7-0-7-------7-0-7-7-|


  S S S S S S S S S S S S S S S S   S S S S S S S S S S S S S S E
|---------------------------------|--------------------------------|
|---------------------------------|-7-7-7-5-5-5--------------------|
|-------------------------3-5-8-5-|-------------8-8-8-7-7-0-5-8-5--|
|-0-0-0-3-3-3-5-5-5-7-7-7---------|--------------------------------|


 Pre-Chorus
  W          +W
|----------|--------|
|----------|--------|
|----------|--------|
|-0--------|-(0)----|


 Chorus
  Gtr II
  S S S S S S E. S S S S S E   S S S S S S Q.   T T e.
|----------------------------|-------------------------|
|----------------------------|-------------------------|
|-------------5--8-7-5-7-8-5-|-------------3--------x--|
|-0-0-0-0-0-0----------------|-3-3-3-3-3-0------3-3-x--|


  S S S S S S E. S S S S S E   S S S S S S  S  S  S S S S S S S S
|----------------------------|------------------------------------|
|----------------------------|------------------------------------|
|-------------5--8-7-5-7-8-5-|-8-8-8-7-7-7------------------------|
|-0-0-0-0-0-0----------------|-------------10-10-10-7-7-7-5-5-3-3-|


  S S S S S S E. S S S S S E   S S S S S S Q.   T T e.
|----------------------------|-------------------------|
|----------------------------|-------------------------|
|-------------5--8-7-5-7-8-5-|-------------3--------x--|
|-0-0-0-0-0-0----------------|-3-3-3-3-3-0------3-3-x--|


                              3/4
  S S S S S S E. S S S S S E   S S S S S S  S  S  S S S S
|----------------------------|-----------------------------|
|----------------------------|-----------------------------|
|-------------5--8-7-5-7-8-5-|-8-8-8-7-7-7-----------------|
|-0-0-0-0-0-0----------------|-------------10-10-10-7-7-7--|


                                      Outro
 4/4
  S S S S S S  S  S  S S S S S S S S   W          +W
|------------------------------------|----------|--------|
|------------------------------------|----------|--------|
|-8-8-8-7-7-7------------------------|----------|--------|
|-------------10-10-10-7-7-7-5-5-3-3-|-0--------|-(0)----|


  Gtr I
  S S S S S S S S S S S  S  S  S  S  S
|--------------------------------------|
|--------------------------------------|
|--------------------------12-12-10-10-|
|-0-0-0-0-0-0-0-0-0-0-0-10-------------|


   S  S  S  S  S  S  S  S  S  S  S S  S  S  S  S
|------------------------------------------------|
|------------------------------------------------|
|-10---------------------------------------------|
|----12-12-12-12-12-12-12-12-12-12-8-10-10-10-12-|


  S S S S S S S S  S  S S  S  S S S S
|-------------------------------------|
|-------------------------------------|
|-8-5-5-5-5-5-5-----------------------|
|---------------0-10-12-0-10-12-0-5-7-|


  H.=H
  S S S S S S S S S S S S S S S S   W
|---------------------------------|------*|
|---------------------------------|------*|
|---------------------------------|------*|
|-8-8-8-8-8-8-8-6-3-3-3-3-5-5-5-5-|-0----*|