Mudvayne - Everything And Nothing Chords & Tabs

 

Everything And Nothing Chords & Tabs

Mudvayne Chords & Tabs

Version: 1 Type: Tab 0 ratings
1 star 2 stars 3 stars 4 stars 5 stars
comments

Everything And Nothing Tab

   
Everything and Nothing by Mudvayne
Tabbed by Jason

I just got L.D. 50 last week and this is one of my favorite songs on
it so I decided to figure it out. It's pretty easy but I'm not sure on
a few riffs.
Tune to Drop B (lo to hi B F# B E G# C#)

Intro Verse
|---|-----------------|
|---|-----------------|
|-7-|----7-7----7---8-|
|---|-----------------|
|---|-5-5----5-5--55--|
|---|-----------------|
     Not positive here but all notes are B except last C
[ Tab from: http://www.guitartabs.cc/tabs/m/mudvayne/everything_and_nothing_tab.html ]
Chorus
|----------------|
|----------------|
|----7-7---7---8-|
|-0-0---0-0--00--|
|-0-05-50-05-006-|
|-0-0---0-0--00--|

Bridge
|--------------------|
|--------------------|
|--------------------|
|--------------------|
|-2h3p22-3p2h3-2h300-|
|-2h3p22-3p2h3-2h300-|

Fills                  Outro
|-------|-------------|------------|
|-------|-------------|------------|
|-------|-------------|------------|
|-0-3-6-|-3-3-0-0-7-7-|------------|
|-0-3-6-|-3-3-0-0-7-7-|-2h3p2-3030-|
|-0-3-6-|-3-3-0-0-7-7-|-2h3p2-3030-|

Send comments, corrections, etc. to powekordz@aol.com
Comments