Mudvayne - Dig Chords & Tabs

 

Dig Chords & Tabs

Mudvayne Chords & Tabs

Version: 9 Type: Tab 0 ratings
1 star 2 stars 3 stars 4 stars 5 stars
comments

Dig Tab

   
Song: Dig
Artist: Mudvayne
Album: L.D. 50
Tabbed by: pasaz_666
Tunning: (B,F#,B,E,G#,C#)
pm - palm mute
b - bend 1/2 step then release
* - pinch harmonics

"THIS IS MY FIRST TAB... PLEASE RATE....."

Intro:
  |--------------------|
  |--------------------|
  |--------------------| 4x
  |-------8-------8----|
  |--0-0--6--0-0--6----|
  |--0-0-----0-0-------|
  Uh... Uh...
  |--------------------|
  |--------------------|
  |-------9*-------9*--| 4x
  |--------------------|
  |--0-0-----0-0-------|
  |--0-0-----0-0-------|

  ahhhh... 
  |-------------------|---------------|--------------------------|
  |-------------------|---------------|--------------------------|
  |-------------------|---------------|-----------------------8/-|
  |-------------------|---------------|-----------------------6/-|
  |--2b--0-2-3-2-0--2b|--0-2-3-2-0--2b|--0-2-3-2-0--2b---0-0-----|
  |--2b--0-2-3-2-0--2b|--0-2-3-2-0--2b|--0-2-3-2-0--2b---0-0-----|

Chorus:
  
  Dig, Burry me, Underneath..
  |-------------------|---------------|--------------------------|
  |-------------------|---------------|--------------------------|
  |-------------------|---------------|-----------------------8/-|
  |-------------------|---------------|-----------------------6/-|
  |--2b--0-2-3-2-0--2b|--0-2-3-2-0--2b|--0-2-3-2-0--2b---0-0-----|
  |--2b--0-2-3-2-0--2b|--0-2-3-2-0--2b|--0-2-3-2-0--2b---0-0-----|

Verse:
[ Tab from: http://www.guitartabs.cc/tabs/m/mudvayne/dig_tab_ver_9.html ]
  |-----------------------------------------------------------|
  |-----------------------------------------------------------|
  |-----------------------------------------------------------|
  |------2------------------2------------------2--------------|
  |--2-2----0-2-3-2-0---2-2----0-2-3-2-0---2-2-----0-2-3-2-0--|
  |--2-2----0-2-3-2-0---2-2----0-2-3-2-0---2-2-----0-2-3-2-0--|
     * *    * * * * *   * *    * * * * *   * *     * * * * *
  |----------------------------------|
  |----------------------------------|
  |-12121212121212121212121212121212-| 2x
  |-xxxxxxxxxxxxxxxxxxxxxxxxxxxxxxxx-|
  |-10101010101010101010101010101010-|
  |----------------------------------|


Fill:

  |----------------|
  |----------------|
  |----------------|
  |----------------|
  |--0-1-2-5-4-3---|
  |--0-1-2-5-4-3---|

Bridge:

  |------------------------------------------------------|
  |------------------------------------------------------|
  |------------------------------------------------------|
  |------------------------------------------------------|
  |--2b--2-2-2-2--2b--2-2-2-2--2b--2-2-2-2--2b--2-2-2-2--|
  |--2b--2-2-2-2--2b--2-2-2-2--2b--2-2-2-2--2b--2-2-2-2--|
         * * * *      * * * *      * * * *      * * * *
 
Bridge 2:

  Let me hold you.....
  |---------------|
  |---------------|
  |---------------|
  |---------------|
  |---------------|
  |--5b-5b-5b-5b--|

Bridge 3:

  |----------------------|
  |----------------------|
  |----------------------|
  |-------8/-------8/----| Just figure out the rythm
  |--0-0--6/--0-0--6/----|
  |--0-0-----0-0---------|

  |----------------| 
  |----------------|
  |----------------|
  |----------------|
  |----------------|
  |--0-1-2-5-4-3---|

Dig, Burry me, Underneath..
  |-------------------|---------------|--------------------------|
  |-------------------|---------------|--------------------------|
  |-------------------|---------------|-----------------------8/-|
  |-------------------|---------------|-----------------------6/-|
  |--2b--0-2-3-2-0--2b|--0-2-3-2-0--2b|--0-2-3-2-0--2b---0-0-----|
  |--2b--0-2-3-2-0--2b|--0-2-3-2-0--2b|--0-2-3-2-0--2b---0-0-----|

Fill in the chorus:
  |----------|
  |----------|
  |----------|
  |----------|
  |--2-2-----|
  |--2-2-----|

Bombs away.....
|-----------|
|-----------|
|-----------|
|-------6/--|
|--0-0--6/--|
|--0-0------|
Comments